White Stripes - Offended In Every Way Chords & Tabs

 

Offended In Every Way Chords & Tabs

White Stripes Chords & Tabs

Version: 2 Type: Tab 0 ratings
1 star 2 stars 3 stars 4 stars 5 stars
comments

Offended In Every Way Tab

   
#----------------------------------PLEASE NOTE---------------------------------#
#This file is the author's own work and represents their interpretation of the #
#song. You may only use this file for private study, scholarship, or research. #
#------------------------------------------------------------------------------#

INTRO(and outro if you play slowly):

e-------------------------------------3--------------------------------
B-------------------------------------3-------------3------------------
G-----------------------------------0-0-0-0---0-2---2---3-3-2-0---0-3-0
D-0---------2-----------2---------0---------3-----0-0-0---------3------
A---3-1-0---2---0-1-3---2---3-1-3--------------------------------------
E---------3-3-3-------1-1-1--------------------------------------------

e----------------------------------------------------------------------
B----------------------------------------------------------------------
G-----------5----------------------------------------------------------
D-----------5-----------2---------5------------------------------------
A---0-1-2-3-3-3-2-0-----2-----0-1-5------------------------------------
E-3-----------------3-1-1-1-3-----3------------------------------------


[ Tab from: http://www.guitartabs.cc/tabs/w/white_stripes/offended_in_every_way_tab_ver_2.html ]
G G         F F F         G G G         D D D                                   
e----------------------------------------------------------------------
B----------------------------------------------------------------------
G-3-2-0-3-0---------------------------------0---0-2--------------------
D-----------------------------------0---------3------------------------
A-----------------0-1-3-------3-1-3------------------------------------
E---------------3------------------------------------------------------

                          C C         F F         G G                                   
e----------------------------------------------------------------------
B----------------------------------------------------------------------
G-3-3-2-0---0-3-0------------------------------------------------------
D---------3------------------------------------------------------------
A-------------------0-1-2-----3-1-0-----------0-1----------------------
E-----------------3-----------------3-----1-3--------------------------


ell that's it. If you have anything to coment or correct send it to
thehcfan@hotmail.com
Comments