White Stripes - Offended In Every Way Chords & Tabs

 

Offended In Every Way Chords & Tabs

White Stripes Chords & Tabs

Version: 1 Type: Tab 0 ratings
1 star 2 stars 3 stars 4 stars 5 stars
comments

Offended In Every Way Tab

#----------------------------------PLEASE NOTE---------------------------------#
#This file is the author's own work and represents their interpretation of the #
#song. You may only use this file for private study, scholarship, or research. #
#------------------------------------------------------------------------------##

OFFENDED IN EVERY WAY
The Whie Stripes

INTRO
E|-------------------------------|
B|-------------------------------|
G|-------------------------------|
D|-------------------------------|
A|--5--3--------------------3----|
E|--------6--5--3---3--5-6----1--|

E|---------------------------------------|
B|---------------------------------------|
G|---------------------------------------|
D|---------------5--5--5--3--5--7--------|
A|--3--1--3---5--------------------5--5--|
E|---------------------------------------|

E|-------------------------------------------|
B|-------------------------------------------|
G|-------------------------------------------|
D|--s8-7-5--3--5-----------------------------|
A|----------------5---------2--3--3-1-0------|
E|----------------3--3-5-6--------------3--1-|
[ Tab from: http://www.guitartabs.cc/tabs/w/white_stripes/offended_in_every_way_tab.html ]
E|-----------------|
B|-----------------|
G|-----------------|
D|-----------------|
A|-----------------|
E|--1--3--5--6--3--|
VERSE
               
(I'm patient of this plan/As humble as I can ect..)
                 

CHORUS
E|---------------------------|
B|---------------------------|
G|-4-4-----------------4--4--|
D|-5-5-----------------5--5--|
A|-5-5----5-3-1--3--1--5--5--|
E|-3-3-----------------3--3--|

THEN BACK TO INTRO NOTE THE SLIGHT VARIATION
E|-----------------|
B|-----------------|
G|-----------------|
D|-----------------|
A|------------3----|
E|----3--5-6----1--|




E|---------------------------------------|
B|---------------------------------------|
G|---------------------------------------|
D|---------------5--5--5--3--5--7--------|
A|--3--1--3---5--------------------5--5--|
E|---------------------------------------|

E|-------------------------------------------|
B|-------------------------------------------|
G|-------------------------------------------|
D|--s8-7-5--3--5-----------------------------|
A|----------------5---------2-3--3-1-0-------|
E|----------------3--3-5-6--------------3--1-|

E|-----------------|
B|-----------------|
G|-----------------|
D|-----------------|
A|-----------------|
E|--1--3--5--6--3--|
Comments