White Stripes - Offend In Every Way Chords & Tabs

 

Offend In Every Way Chords & Tabs

White Stripes Chords & Tabs

Version: 9 Type: Tab 0 ratings
1 star 2 stars 3 stars 4 stars 5 stars
comments

Offend In Every Way Tab

This tab is perfect everyhting is correct you should be happy very happy.
If you want to conact me about any problems email at: Computergeek7412@aol.com


e|------------------------------------------------------
b|------------(0)-------------------------------------3-
g|-------------------------------------0----0---0-2---2-
d|-0---------------------------------0--------3-----0-0-
a|---3-1-0---5------0-1-3---3--3-1-3-----5--------------
E|---------3-3----3-------1-1------------3--------------

e|-------------------------------
b|-------------------------------
g|--2-2h3-2-0---0---(0)----------
d|------------3------------------
a|---------------5------0-1-2-3--
E|---------------3----3----------

e|---------------------------------
b|--(0)----------------------------
g|---------------------------4-----
d|-5-------------------------5-----
a|-3---3-1-0-----3------0-1--5-----
E|-----------3-1-1--1-3------3-----
[ Tab from: http://www.guitartabs.cc/tabs/w/white_stripes/offend_in_every_way_tab_ver_9.html ]
Verse:
e|-----------------------------------------------------------------------
b|-----------------------------------------------------------------------
g|----------------------------7-7-7-7------------------------------------
d|-5-5-5-5--3-3-3-3--5-5-5-5--7-7-7-7--5-5-5-5--10-10-10-10--3-3-3-3--5-5
a|-5-5-5-5--3-3-3-3--5-5-5-5--5-5-5-5--5-5-5-5--10-10-10-10--3-3-3-3--5-5
E|-3-3-3-3--1-1-1-1--3-3-3-3-----------3-3-3-3--8--8--8--8---1-1-1-1--3-3
    PM	     PM       PM       PM       PM        PM          PM     

e|------
b|------
g|------
d|-5-5--
a|-5-5--
E|-3-3--
   PM


Chorus
e|------------------------------------------------------------------------
b|------------------------------------------------------------------------
g|----------------------------------------------7-------------------------
d|-----------5-----------3--------5-5-5-3-5-7-0-7-7h8-7-5-3-5-5-----------
a|-5-3-1-5-1-5-----------3-3-1-3-5--5-----------5-------------5-----------
E|-----------3-3-5-6-8-1-1----------3-------------------------3-3-5-6-7-8-

e|-----------------------------------
b|-----------------------------------
g|-----------------------------------
d|-10-----------3-----------5--------
a|-10-----------3-----------5--------
E|-8--8-6-5-3-1-1-1-3-5-6-3-3--------
Comments