White Stripes - Offend In Every Way Chords & Tabs

 

Offend In Every Way Chords & Tabs

White Stripes Chords & Tabs

Version: 6 Type: Tab 0 ratings
1 star 2 stars 3 stars 4 stars 5 stars
comments

Offend In Every Way Tab

E-----------------------------------------
B-----------------------------------------
G-----------------0-----------------------
D--0--------------0-----------------------
A-----3--1--0-----2-------0--1--3---------
E--------------3--3----3-----------1--1---
[ Tab from: http://www.guitartabs.cc/tabs/w/white_stripes/offend_in_every_way_tab_ver_6.html ]
E-----------------------------------------
B-----------------------------------------
G--------------0--0----0-----0--2---------
D-----------0-------------3--------0--0---
A--3--1--3--------------------------------
E-----------------------------------------

E-----------------------------------------
B-----------------------------------------
G-2/3--2--0-----0---0---------------------
D------------3----------------------------
A--------------------------0--1--2--3--3--
E-----------------------3-----------------

E-----------------------------------------
B-----------------------------------------
G--------------------------------------0--
D--------------------------------------0--
A--3--1--0-------------------0--1------2--
E-----------3--1--1----1--3---------3--3--
Comments