White Stripes - Offend In Every Way Chords & Tabs

 

Offend In Every Way Chords & Tabs

White Stripes Chords & Tabs

Version: 1 Type: Tab 2 ratings
1 star 2 stars 3 stars 4 stars 5 stars
comments

Offend In Every Way Tab

   
#----------------------------------PLEASE NOTE---------------------------------#
#This file is the author's own work and represents their interpretation of the #
#song. You may only use this file for private study, scholarship, or research. #
#------------------------------------------------------------------------------#

Previously submitted by: odious ominious

 -----------------------------------
| Offend in Every Way               |
| Words and Music by Jack White     |
| The White Blood Cells (track 10)  |
 -------------------------------------------------------------------------------------------------
| Tab Definitions:  |
|   /: Slide to note  |
|   P.M.: Palm Muting  |
|   N = note 4=quater notes 2=half 1=whole 8=eight 3=triplet (note).=dotted whatever note         |
|   g=grace note                                                                                  |
|   L holding note                                                                                |
|   NC = no cord                                                                                  |
 -------------------------------------------------------------------------------------------------
 Tempo (quater note) = 84  (in the key of Bb)  4/4

INTRO:
  NC        G               F5            G             Dm                G      
e|---------|---------------|-------------|-------------|-----------------|---------------|
B|---------|-----0-L-------|-------------|-----0---0-2-|---3-3-----------|-----0---------|
G|---------|---0-----------|-------------|-0-0---3-----|-0-2-2-2h3-2-0---|-0-0-----------|
D|-0-------|---0-----------|-----------0-|---0---------|---0-----------3-|---0-----------|
A|---3-1-0-|---------0-1-3-|---3-3-1-3---|-------------|-----------------|---------0-1-2-|
E|---------|-3-----3-------|-1-1---------|---3---------|-----------------|---3---3-------|
N| 8.6 8.6   4 8.6 8.6 8.6   4 4 8.6 8.6   4 4 8.6 8.6   4 4 6 g 8.6 8.6   4 8.6 8.6 8.6

                                (Tempo change 92 [faster])
  C               F5            G   NC
e|---------------|-------------|---|------|
B|-----1---------|-------------|---|------|
G|---0-----------|-------------|-0-|------|
D|---1-----------|-------------|-0-|------|
A|-3-3---3-1-0---|-------------|-x-|------|
E|-------------3-|-1-----------|-3-|----0-|
N| 4 8.6 8.6 8.6   4 4 8.6 8.6   1   2.88

VERSE:
[ Tab from: http://www.guitartabs.cc/tabs/w/white_stripes/offend_in_every_way_tab.html ]
  G             F5            G           Dm              G             C5            F5          G
e|-------------|-------------|-----------|---1-1-----1---|-------------|-------------|-----------|---------------|
B|-------------|-------------|-----------|-3-3-3-----3---|-------------|-------------|-----------|---------------|
G|*--0-0-0-0---|-------------|-0-0-0-0---|-2-2---2-2-2---|-0-0-0-0-0---|-5-5-5-5-5---|-----------|-0-0-----------|
D|---0-0-0-0---|-3-3---3-3---|-0-0-0-0---|-0-0---0-0-0-0-|-0-0-0-0-0---|-5-5-5-5-5---|-3-3-3-3---|-0-0-0-----0---|
A|*--x-x-x-x---|-3-3---3-3---|-x-x-x-x---|-------------0-|-x-x---x-x---|-3-3---3-3---|-3-3-3-3---|-x-x---3-1---1-|
E|---3-3-3-3-0-|-1-1-x-1-1-0-|-3-3-3-3-0-|---------------|-3-3---3-3-0-|-----------0-|-1-1-1-1-0-|-3-3-----------|
N|   4 4 4 8 8   4 8.6 4 8 8   4 4 4 8 8   4 8.6 8 8 8 8   4 8.6 4 8 8   4 8.6 4 8 8   4 4 4 8 8   4 8 6 6 8 8 8

       v           F5                 G5   v            Dm                  G        v          C
e|-----3---------|-----------------|-----3-----------|-----1---------------|-------3-3---------|-------------|
B|-----0---------|-----------------|-----0-----------|---3-3-3-------------|-------0-0---------|-------------|
G|-0-0-0---------|-----------------|-0-0-0-0-0---0-2-|---2---2-2/3-3-2-0---|-0-2-0-0-0---------|-------------|
D|-0-0-----------|-3-3-x-3---------|-0-0---0---3-----|-0-0---0-----------3-|-------0-----------|---------0---|
A|-x-x-----0-1-3-|-3-3-x-3-3-1-3-0-|---x---x---------|---------------------|-------x-----0-1-2-|-3-3-3-1-----|
E|-3-3---3-------|-1-1-x-1---------|---3---3---------|---------------------|-------3---3-------|-----------3-|
N| 4 8.6 8 8 8 8   4 8.6 8 6 6 8 8   4 8.6 8 6 6 8 8   4 8.6 8 6 6 8 8 8 8   6 6 8 8.6 8 8 8 8   4 4 8 8 8 8

                          (Tempo change 84 [slower])
  F5              G(1)(2) G (3)                                          F5            G             Dm
e|---------------|-------|-------------|---------------|-------------|-------------|-------------|---1-1-----------|
B|---------------|------*|-------0---0-|---------------|-------------|-------------|-------------|---3-3-----------|
G|---------------|-0-0---|-0-0-0-0-0-0-|-0-0-----------|-0-0---------|-------------|-0-0-0---0-2-|---2-2-2h3-2-0---|
D|-3-3-x---------|-0-0---|-0-0-0-0-0-0-|-0-0---0-------|-0-0---------|-----------0-|---0---3-----|-0-0-----------3-|
A|-3-3-x-----0-1-|-x-x--*|-x-x-x---x---|-x-x-----3-1-0-|-x-x---0-1-3-|---3-3-1-3---|---x---------|-----------------|
E|-1-1-x-1-3-----|-3-3---|-3-3-3---3---|-3-3-3---------|-3-3-3-------|-1-1---------|---3---------|-----------------|
N| 4 8.6 8 8 8 8   4 4 2   4 4 8.6 8.6   4 8.6 8.6 8.6   4 4 8.6 8.6   4 4 8.6 8.66  4 4 8.6 8.6   4 8.6 g 8.6 8.6
      
  G               C                 F5                G*hold
e|---------------|-----------------|-----------------|------||
B|---0-0---------|-----------------|-----------------|-0----||
G|-0-0-0---------|-----0-----------|-----------------|-0----||
D|---0-----------|---1---1---------|-----3-----------|-0----||
A|---x-----0-1-2-|-3-------3-1-0---|---3---3-----0-1-|-x----||
E|---3---3-------|---------------3-|-1-------1-3-----|-3----||
N| 4 8.6 8.6 8.6   8.6 8.6 8.6 8.6   8.6 8.6 8.6 8.6   1
Comments