White Stripes - Offend In Every Way Chords & Tabs

 

Offend In Every Way Chords & Tabs

White Stripes Chords & Tabs

Version: 1 Type: Bass Tab 0 ratings
1 star 2 stars 3 stars 4 stars 5 stars
comments

Offend In Every Way Bass Tab

These are the riffs:

Riff 1

G---------------------------------------------------------|
D-0----------------055-535700-787535----------------------|
A--310----013---313-------------------01233-310-------01--|
E-----33-3---11----------------------3---------311-113--3-|

Riff 2
[ Tab from: http://www.guitartabs.cc/tabs/w/white_stripes/offend_in_every_way_btab.html ]
G----------------------------------------------------------------------|
D----------------------------------------------------------------------|
A------------------------------5-5-5-5-----------3-3-3-3---------------|
E---3-3-3-3--1-1-1-1--3-3-3-3-----------3-3-3-3-----------1-1-1-1--3-3-|

THis is the order:

Riff 1 x1
Riff 2 x1
Riff 1 x1
Riff 2 x1
Riff 1 x1
Riff 2 x1
Riff 1 x2


Enjoy

by Lemonidas
Comments