White Stripes - My Doorbell Chords & Tabs

 

My Doorbell Chords & Tabs

White Stripes Chords & Tabs

Version: 1 Type: Bass Tab

My Doorbell Bass Tab

This is a really easy tab to play, it's easy to hear the bass-rythem.
If you have any comments, please mail: witchiewitch92@hotmail.com


Verse
|----------------|(those are 1's not 11's)
|--------11-----1|
|----11----------|(Repeat until chorus)
|11----------11--|
[ Tab from: http://www.guitartabs.cc/tabs/w/white_stripes/my_doorbell_btab.html ]
Chorus
|----------------|
|--------1~1~----|
|----1~1~--------|(Repeat)
|1~1~ -------1~1~|

Bridge
|--------------------------|
|--1-3----1-3--3-1---11----|(play 2 times, the 2nd time add Bridge 2)
|3------3----------3----3-1|
|--------------------------|

Bridge 2
|-------------------|
|-------------------|
|-33-1--------1-----|
|------4444444-1~~--|