White Stripes - Lets Build A Home Chords & Tabs

 

Lets Build A Home Chords & Tabs

White Stripes Chords & Tabs

Version: 1 Type: Tab 0 ratings
1 star 2 stars 3 stars 4 stars 5 stars
comments

Lets Build A Home Tab

   
this tab is very easy, only can you use chorus and distortion
esta tablatura es sencilla solo puedes usar pedal de: chorus y distorsion

main riff
e|--------------------------------|
B|--------------------------------|
G|--------------------------------|
D|--------------------------------|  X4
A|-2--2--2--2--2--2--2--2--2--2---|
E|----3-----3-----3-----3-----3---|

e|-----------------------|
B|-----------------------|
G|-----------------------|
D|-----------------------|
A|-7-7-7-7-7-7-7-7-------|
E|-5-5-5-5-5-5-5-5-------|

e|-----------------------------|
B|-----------------------------|
G|-----------------------------|
D|-----------------------------|
A|-2--2--2--2--2--2--2--2------|
E|----3-----3-----3-----3------|

e|-----------|
B|-----------|
G|-----------|
D|-----------| X4  woooo
A|-9-9-9-9-9-|
E|-7-7-7-7-7-|

e|------------------------------------|
B|-33/44/55/66/77/88/99/10-10/11-11\0-|
G|-33/44/55/66/77/88/99/10-10/11-11\0-|
D|-33/44/55/66/77/88/99/10-10/11-11\0-|
A|-33/44/55/66/77/88/99/10-10/11-11\0-|
E|------------------------------------|
[ Tab from: http://www.guitartabs.cc/tabs/w/white_stripes/lets_build_a_home_tab.html ]
e|-----------------------------|
B|-----------------------------|
G|-----------------------------|
D|-----------------------------| X2
A|-2--2--2--2--2--2--2--2------|
E|----3-----3-----3-----3------|

e|-----------------------------
B|-xx/xx/xx/xx/xx/xx/xx/xx/xx/-
G|-xx/xx/xx/xx/xx/xx/xx/xx/xx/-
D|-----------------------------|
A|-----------------------------|
E|-----------------------------|
(slide of mute note of 3 a 11)
(vas a hacer un slide con nota muda de 3 a 11 esto esta papa)

e|-----------------------------|
B|-----------------------------|
G|-----------------------------|
D|-----------------------------| X4
A|-2--2--2--2--2--2--2--2------|
E|----3-----3-----3-----3------|

e|-----------------|
B|-----------------|
G|-----------------|
D|-----------------|
A|-7-7-7-7-7-7-7-7-|
E|-5-5-5-5-5-5-5-5-|

e|-----------------------------|
B|-----------------------------|
G|-----------------------------|
D|-----------------------------| X2
A|-2--2--2--2--2--2--2--2------|
E|----3-----3-----3-----3------|

e|-----------|
B|-----------|
G|-----------|
D|-----------| X4  woooo
A|-9-9-9-9-9-|
E|-7-7-7-7-7-|
Comments