White Stripes - Jumble Jumble Chords & Tabs

 

Jumble Jumble Chords & Tabs

White Stripes Chords & Tabs

Version: 2 Type: Tab 0 ratings
1 star 2 stars 3 stars 4 stars 5 stars
comments

Jumble Jumble Tab

Espero que les lata la rola la verdad no se si esta perfecta pero pues si es muy similar,
recuerden también que para que salga igualita que el disco influyen varios factores como,
el tener la misma guitarra, igualmente a finada, la remasterisación etc. aunque
generalmente siempre se escucha similar.

La guitarra con la que toco esta canción esta afinada en:

E||------------------------------------------------------|
B||------------------------------------------------------|
G||------------------------------------------------------|
D||------------------------------------------------------|
A||------------------------------------------------------|
e||------------------------------------------------------|

Y si no me falla la memoria:
^= jalen la cuerda hacia arriba.

Cuando toquen la rola no deben dejar apretadas las cuerdas al cambiar de trastes, osea
que las tienen que apretar en cada nota, bueno cuando escuchen la canción sabran como.


||--------------------|
||--------------------|
||--------------------|
||-7--7--5--5--7--7-5-|
||-7--7--5--5--7--7-5-|
||-5--5--3--3--5--5-3-|


All rigth

---------------------16-13^----------------------16-13^---------------------|
----------------------------------------------------------------------------|
----------------------------------------------------------------------------|
-7--7--5--5--7--7-5----------7--7--5--5--7--7-5----------7--7--5--5--7--7-5-|
-7--7--5--5--7--7-5----------7--7--5--5--7--7-5----------7--7--5--5--7--7-5-|
-5--5--3--3--5--5-3----------5--5--3--3--5--5-3----------5--5--3--3--5--5-3-|


Jumble, jumble...

----------------------------------------------------------------------|
----------------------------------------------------------------------|
----------------------------------------------------------------------|
-7--7--5--5--7--7-5----7--7--5--5--7--7-5----11--11--9--9--11--11-9---|
-7--7--5--5--7--7-5----7--7--5--5--7--7-5----11--11--9--9--11--11-9---|
-5--5--3--3--5--5-3----5--5--3--3--5--5-3----9---9---7--7--9---9--7---|

------------------------------------------------------------|
------------------------------------------------------------|
------------------------------------------------------------|
-7--7--5--5--7--7-5----11-----9-----7--7--5--5--7--7-5----5-|
-7--7--5--5--7--7-5----11-----9-----7--7--5--5--7--7-5----5-|
-5--5--3--3--5--5-3----9------7-----5--5--3--3--5--5-3----3-|

-16-13-16-13-16-13-16-13-16-13-16-13^----|
-----------------------------------------|
-----------------------------------------| x3
---------------------------------------5-|
---------------------------------------5-|
---------------------------------------3-|
[ Tab from: http://www.guitartabs.cc/tabs/w/white_stripes/jumble_jumble_tab_ver_2.html ]
-16-13-16-13-16-13-16-13-16-13-16-13^----------------------16-13^-|
------------------------------------------------------------------|
------------------------------------------------------------------|
---------------------------------------7--7--5--5--7--7-5---------|
---------------------------------------7--7--5--5--7--7-5---------|
---------------------------------------5--5--3--3--5--5-3---------|

-----------------------|
-----------------------|
-----------------------| x3
-7--7--5--5--7--7-5----|
-7--7--5--5--7--7-5----|
-5--5--3--3--5--5-3----|


Crumble, crumble...

----------------------------------------------------------------------|
----------------------------------------------------------------------|
----------------------------------------------------------------------|
-7--7--5--5--7--7-5----7--7--5--5--7--7-5----11--11--9--9--11--11-9---|
-7--7--5--5--7--7-5----7--7--5--5--7--7-5----11--11--9--9--11--11-9---|
-5--5--3--3--5--5-3----5--5--3--3--5--5-3----9---9---7--7--9---9--7---|

------------------------------------------------------------|
------------------------------------------------------------|
------------------------------------------------------------|
-7--7--5--5--7--7-5----11-----9-----7--7--5--5--7--7-5----5-|
-7--7--5--5--7--7-5----11-----9-----7--7--5--5--7--7-5----5-|
-5--5--3--3--5--5-3----9------7-----5--5--3--3--5--5-3----3-|

-16-13-16-13-16-13-16-13-16-13-16-13^----|
-----------------------------------------|
-----------------------------------------| x3
---------------------------------------5-|
---------------------------------------5-|
---------------------------------------3-|

-16-13-16-13-16-13----16-14-19^-16-----------------------16-19^-|
-------------------14-------------------------------------------|
----------------------------------------------------------------|
------------------------------------7--7--5--5---7--7-5---------|
------------------------------------7--7--5--5---7--7-5---------|
------------------------------------5--5--3--3---5--5-3---------|

----------------------|
----------------------|
----------------------|
-7--7--5--5---7--7-5--|
-7--7--5--5---7--7-5--|
-5--5--3--3---5--5-3--|


Tumble, tumble...

-----------------------------------------------------------------------|
-----------------------------------------------------------------------|
-----------------------------------------------------------------------|
-7--7--5--5---7--7-5----7--7--5--5---7--7-5----11--11--9--9---11--11-9-|
-7--7--5--5---7--7-5----7--7--5--5---7--7-5----11--11--9--9---11--11-9-|
-5--5--3--3---5--5-3----5--5--3--3---5--5-3----9---9---7--7---9---9--7-|

--------------------------------------------------------------|
--------------------------------------------------------------|
--------------------------------------------------------------|
-7--7--5--5---7--7-5----11-----9-----7--7--5--5---7--7-5----5-|
-7--7--5--5---7--7-5----11-----9-----7--7--5--5---7--7-5----5-|
-5--5--3--3---5--5-3----9------7-----5--5--3--3---5--5-3----3-|

Cualquier corrección mandenla a dermeisterwhiskey@hotmail.com o ponganla en esta web.
Comments