White Stripes - Jumble Jumble Chords & Tabs

 

Jumble Jumble Chords & Tabs

White Stripes Chords & Tabs

Version: 1 Type: Tab 0 ratings
1 star 2 stars 3 stars 4 stars 5 stars
comments

Jumble Jumble Tab

This is a great song by the whites stripes.

e|-------------------------------------
b|-------------------------------------
g|-------------------------------------
d|-7-7--5-5--7-7-5----7-7--5-5--7-7-5--
a|-7-7--5-5--7-7-5----7-7--5-5--7-7-5--
e|-5-5--3-3--5-5-3----5-5--3-3--5-5-3--

e|-------------------------------------
b|-------------------------------------
g|-------------------------------------
d|-7-7--5-5--7-7-5----7-7--5-5--7-7-5--
a|-7-7--5-5--7-7-5----7-7--5-5--7-7-5--
e|-5-5--3-3--5-5-3----5-5--3-3--5-5-3--
   Jumble, Jumble       I'm at my house

e|-------------------------------------
b|-------------------------------------
g|-------------------------------------
d|-9-9--7-7--9-9-7----7-7--5-5--7-7-5--
a|-9-9--7-7--9-9-7----7-7--5-5--7-7-5--
e|-7-7--5-5--7-7-5----5-5--3-3--5-5-3--
     Come on over      Sleep on the couch

e|--------------------------------------
b|--------------------------------------
g|--------------------------------------
d|-----------7---5------7-7--5-5--7-7-5-
a|-----------7---5------7-7--5-5--7-7-5-
e|-----------5---3------5-5--3-3--5-5-3-
  Can't even see ya    Look like a mouse
[ Tab from: http://www.guitartabs.cc/tabs/w/white_stripes/jumble_jumble_tab.html ]
e|----7-5-7-5-7-5-7-5-7-5-7-5-----------
b|--------------------------------------
G|--------------------------------------
d|-7------------------------------------
a|-7------------------------------------
e|-5------------------------------------

e|----7-5-7-5-7-5-7-5-7-5-7-5-----------
b|--------------------------------------
G|--------------------------------------
d|-7------------------------------------
a|-7------------------------------------
e|-5------------------------------------

e|----7-5-7-5-7-5-7-5-7-5-7-5-----------
b|--------------------------------------
G|--------------------------------------
d|-7------------------------------------
a|-7------------------------------------
e|-5------------------------------------

e|----7-5-7-5-7-5-0-7-0-6-0-------------
b|--------------------------------------
G|--------------------------------------
d|-7------------------------------------
a|-7------------------------------------
e|-5------------------------------------

e|-------------------7-9----------------
b|--------------------------------------
G|--------------------------------------
d|-7-7--5-5--7-7-5----------------------
a|-7-7--5-5--7-7-5----------------------
e|-5-5--3-3--5-5-3----------------------

The rest is stuff that just repeats what I wrote down. Questions, comments,
suggestions, insults feel free to send me an e-mail at hkdsk8flip@yahoo.com
Tabbed By Luis Carrillo
Comments