White Stripes - Jolene Chords & Tabs

 

Jolene Chords & Tabs

White Stripes Chords & Tabs

Version: 6 Type: Tab 0 ratings
1 star 2 stars 3 stars 4 stars 5 stars
comments

Jolene Tab

   
  Jolene - The White Stripes

Tabbed by:Dom D
Email:Domwhateveryearitis@yahoo.ie

intro
e|--------------------------|
B|-----0--0h1------0h1-0h1--|
G|-2----------2-------------|     x4
D|---2----------2-----------|
A|--------------------------|
E|--------------------------|

the 4th time follow with

e|--------------------------|
B|-0-1----------------------|
G|------2-------------------|
D|--------2---2-------------|
A|------------0-------------|
E|--------------------------|

chorus
  Am  f  g  Am                      g  Am
e|-0--------0--------------------------0--|
B|-1--------1--0--0h1------0h1-0h1-----1--|
G|-2--------2---------2----------------2--|
D|-2--3--5--2-----------2-----------5--2--|
A|-0--3--5--2-----------------------5--0--|
E|-0--1--3--0-----------------------3--0--|

verse
[ Tab from: http://www.guitartabs.cc/tabs/w/white_stripes/jolene_tab_ver_6.html ]
   Am f  g  Am g    Am
e|-0--------0-------0--------------------------------------------|
B|-1--------1-------1--0--0h1------0h1-0h1--0--0h1------0h1-0h1--|
G|-2--------2-------2---------2--------------------2-------------|
D|-2--3--5--2--5----2-----------2--------------------2-----------|   x3
A|-0--3--5--0--5----0--------------------------------------------|
E|-0--1--3--0--3----0--------------------------------------------|


e|-------------------------------------------------------------------|
B|0--0h1------0h1-0h1--0--0h1------0h1-0h1--0-1----------------------|
G|-------2--------------------2------------------2-------------------|
D|---------2--------------------2------------------2---2-------------|
A|-----------------------------------------------------0-------------|
E|-------------------------------------------------------------------|

order
Intro
Chorus (don't go mad yet)
verse
Chorus (a lot louder and madder than the 1st chorus)
verse
Chorus (same as second)

Finish on an Am chord

Thats about it enjoy!
Comments