White Stripes - Jimmy The Exploder Chords & Tabs

 

Jimmy The Exploder Chords & Tabs

White Stripes Chords & Tabs

Version: 4 Type: Tab 0 ratings
1 star 2 stars 3 stars 4 stars 5 stars
comments

Jimmy The Exploder Tab

   
Artist: The White Stripes
Song: Jimmy The Exploder
Album: The White Stripes
Tabbed By: YAY_FOR_PIE

I'm pretty sure this is right. I was looking online and all of the others
are in the wrong key. If I made any mistakes please email me.

****************************************************************************
Intro:
E)------4-2---------|
B)------------------|
G)----------4-4-----|  Repeat Once
D)------------------|
A)------------------|
E)-2-4--------------|

The Next Little Thing After The Intro:
E)--------------|
B)--------------|
G)-----6/8-6-5--|
D)------------6-|  Repeat Four Times
A)--4-6---------|
E)-4------------|
[ Tab from: http://www.guitartabs.cc/tabs/w/white_stripes/jimmy_the_exploder_tab_ver_4.html ]
Verse:
E)-----------------|
B)-----------------|
G)-----------------|
D)-6-6-4-4-6-6-4-4-|  Repeat As Much As Nececary
A)-6-6-4-4-6-6-4-4-|
E)-4-4-2-2-4-4-2-2-|

Chorus:
E)----------------------|
B)----------------------|
G)----------------------|
D)-13--9----------------|
A)-13--9----------------|Back To Verse
E)-11--7----------------|

Part Where Jack Makes Monkey Noises:
E)--
B)--
G)--  Repeat Sixteen Times
D)-6
A)-6
E)-4

Green Apples Part:
E)-----------|
B)-----------|
G)-----------|
D)-6-6-44-33-| Repeat Until It Gets Fast Again
A)-6-6-44-33-|
E)-4-4-22-11-|

Verse

Chorus

Ends With The Monkey Noises Again
Comments