White Stripes - Jimmy The Exploder Chords & Tabs

 

Jimmy The Exploder Chords & Tabs

White Stripes Chords & Tabs

Version: 2 Type: Tab 1 rating
1 star 2 stars 3 stars 4 stars 5 stars
comments

Jimmy The Exploder Tab

   
The White Stripes – Jimmy the Exploder
Tabbed by: Shaun Callahan


Intro Riff:

e|-----------3-1-------|
B|---------------------|    (repeat as necessary)
G|---------------3-3b~-|
D|---------------------|
A|------x-xx-----------|
E|-1b—3-x-xx-----------|



Main Riff:

e|----------------------|
B|----------------------|    (repeat as necessary)
G|-----------5/7-5-4-0--|
D|---5-----3------------|
A|--5----5--------------|
E|-3--------------------|
  rake 


The Rest:  
[ Tab from: http://www.guitartabs.cc/tabs/w/white_stripes/jimmy_the_exploder_tab_ver_2.html ]
e|---------------|
B|---------------|
G|---------------|
D|-5-5-x-3-3-3---|
A|-5-5-x-3-3-3---|
E|-3-3-x-1-1-1---|

    G      F          (during verse)


…And Also: (use these D & A# p-chords for the other part) 

e|---------------|
B|---------------|
G|--7----3-------|
D|--7----3-------|
A|--5----1-------|
E|---------------|

    D    A#

There is a part of the song where he slows it down.  For this part he
is still going back and forth between G & F power chords, however he
hits an F# on his way to F.  So the E string is played something like:

E|-3-3-2-1-x--|  over and over.

That’s about it…I’m not typing out words, so listen to the tune to 
pick up the timing.  
Comments