White Stripes - Jimmy The Exploder Chords & Tabs

 

Jimmy The Exploder Chords & Tabs

White Stripes Chords & Tabs

Version: 1 Type: Tab 1 rating
1 star 2 stars 3 stars 4 stars 5 stars
comments

Jimmy The Exploder Tab

   
WHite Stripes - Jimmy the Exploder

It may not be perfect but all of the riffs are there listen to the 
song to know when and how long to play them. 


e|--------------------|
B|----------7-9-7-----|
G|----------------5b--|
D|--------------------|
A|--------------------|
E|-2/--5b-------------|


e|-----------------|
B|-----------------|
G|--------5b-3-2-0-|
D|-----------------|
A|-----------------|
E|-2-5-2-----------|

[ Tab from: http://www.guitartabs.cc/tabs/w/white_stripes/jimmy_the_exploder_tab.html ]
e|-------------------|
B|-------------------|
G|-------------------|
D|--5-5-x-x--3-3-x-x-|
A|--5-5-x-x--3-3-x-x-|
E|--3-3-x-x--1-1-x-x-|



e|---------|
B|---------|
G|---------|
D|-5-x-3-x-|
A|-5-x-3-x-|
E|-3-x-1-x-|



e|-------------------------|
B|-------------------------|
G|-------------------------|
D|-------------------------|
A|-------------------------|
E|-5-5-x-x-3-3-x-x-2-x-1-x-|


__________________________________
Tabed By Norman
Comments