White Stripes - Jack The Ripper Chords & Tabs

 

Jack The Ripper Chords & Tabs

White Stripes Chords & Tabs

Version: 2 Type: Tab 0 ratings
1 star 2 stars 3 stars 4 stars 5 stars
comments

Jack The Ripper Tab

   
	          Jack The Ripper-White Stripes
-------------------------------------------------------------------------------
Tabbed by:Aerosmithendrix.
Email:

Tuning:standard

This is one of my first tabs so it may not be 100%

Part A
intro
e|---------------------------------------------------------------------------|
B|---------------------------------------------------------------------------|
G|---------------------------------------------------------------------------|
D|---------------------------------------------------------------------------|
A|---------------------------------------------------------------------------|
E|-0-0-3-0-3-0-3-3-0-3--0-3-0-3-0-3-3-0-3-0-hold-----------------------------|
-
Part B
e|---------------------------------------------------------------------------|
B|---------------------------------------------------------------------------|
G|---------------------------------------------------------------------------|
D|---------------------------------------------------------------------------|
A|---------------------------------------------------------------------------|
E|-0-3-0-3-0-3-3-0-3--0-3-0-3-0-3-3-0-3--------------------------------------|

Part C  This is when jack white starts to sing
e|---------------------------------------------------------------------------|
B|---------------------------------------------------------------------------|
G|---------------------------------------------------------------------------|
D|---------------------------------------------------------------------------|
A|---------------------------------------------------------------------------|
E|-0-3-0-3-0-3-0-3-0-3-0-3-0-3-0-3-0-3-0-3-0-3-0-3-0-5--7-5-3-2--------------|

repeat part B

Part D
e|---------------------------------------------------------------------------|
B|---------------------------------------------------------------------------|
G|---------------------------------------------------------------------------|
D|---------------------------------------------------------------------------|
A|---------------------------------------------------------------------------|
E|-0-3-0-3-0-3-0-3-0-3-0-3-0-3-0-3-0-3-0-3-0-3-0-3-0-------------------------|
[ Tab from: http://www.guitartabs.cc/tabs/w/white_stripes/jack_the_ripper_tab_ver_2.html ]
e|---------------------------------------------------------------------------|
B|---------------------------------------------------------------------------|
G|---------------------------------------------------------------------------|
D|---------------------------------------------------------------------------|
A|---------------------------------------------------------------------------|
E|-5--3-0--5--3-0--5--3-0-7hold-000-5-3-0------------------------------------|

repeat part B

repeat part D

e|---------------------------------------------------------------------------|
B|---------------------------------------------------------------------------|
G|---------------------------------------------------------------------------|
D|---------------------------------------------------------------------------|
A|---------------------------------------------------------------------------|
E|--5 going into part B------------------------------------------------------|

repeat part B

repeat part D

  I dont think this is right, Ill fix it later
e|---------------------------------------------------------------------------|
B|--------8b-5---------------------------------------------------------------|
G|--------------7-4-7-4------------------------------------------------------|
D|---------------------------------------------------------------------------|
A|----------------------7---------5------------------------------------------|
E|-5------------------------0-5-7---7-3-0------------------------------------|
Like Peter Gun theme
e|----------------------------------------------------------------------------|
B|----------------------------------------------------------------------------|
G|----------------------------------------------------------------------------|
D|----------------------------------------------------------------------------|
A|----------------------------------------------------------------------------|
E|-0-0-2-0-3-0-5-3-----------at end do this-0-0-2-0-3-5b----------------------|
sorry no solo yet


| /  slide up
| \  slide down
| h  hammer-on
| p  pull-off
| ~  vibrato
| +  harmonic
| x  Mute note
===============================================================================
Comments