White Stripes - Jack The Ripper Chords & Tabs

 

Jack The Ripper Chords & Tabs

White Stripes Chords & Tabs

Version: 1 Type: Tab 0 ratings
1 star 2 stars 3 stars 4 stars 5 stars
comments

Jack The Ripper Tab

This is a cool song in which they only perform live. Use a heavy distorted tone.
Yes, yes I acknowledge its a bass line. and keep the riff at a constant fast pace.

tuning: (EBGDAE) thickest to thinnest.

E ---------------------------------------------------------|
B ---------------------------------------------------------|
G ---------------------------------------------------------|
D ---------------------------------------------------------|
A ---------------------------------------------------------|
E ---0-2-0-3-0-5-3-0-2-0-3-5-3-0-2-0-3-0-5-3-0-2-0-3-5-3---|

Bridge:
[ Tab from: http://www.guitartabs.cc/tabs/w/white_stripes/jack_the_ripper_tab.html ]
E ----------------------|
B ----------------------|
G ----------------------|
D ----------------------|
A --9--9-/10---9---9-/10|
E --7--7-/8----7---7-/8-|

Solo: sorry haven't bothered to think it out (hey its not my fault!)

Closing stages:

E -------------------------------|
B -------------------------------|
G -------------------------------|
D -------------------------------|
A -------------------------------|
E -0-2-0-3-0-5-5~-0-2-0-3-0-5-5~-|

Ending:

E ----------------------------------|
B ----------------------------------|
G ----------------------------------|
D --2*---2*---2*---2*---2-2-2*--2---|
A --2*---2*---2*---2*---2-2-2*--2---|
E --0*---0*---0*---0*---0-0-0*--0---|

On the last, switch from the distorted to a clean tone.
Comments