White Stripes - Instinct Blues Chords & Tabs

 

Instinct Blues Chords & Tabs

White Stripes Chords & Tabs

Version: 2 Type: Tab 0 ratings
1 star 2 stars 3 stars 4 stars 5 stars
comments

Instinct Blues Tab

   
-----------------------------------------------------------------------------
          Instinct Blues - The White Stripes - album: get behind me Satan
-----------------------------------------------------------------------------
Tabbed by: natd
Email: nathandavis13@hotmail.co.uk

Tuning: standard

He starts of playing really quietly

e|-1010p9----10p9-----10p9----10p9----10p9----10p9--------------------------|
B|---------10------10-------10------10------10------10-----------------------|
G|----------------------------------------------------------------2-0--------|
D|-------------------------------------------------------7/3-----------20h2-|
A|-------------------------------------------------------------0-------------|
E|---------------------------------------------------------------------------|
                                          :He starts playing louder here
e|----------------------------------------------------------------------------|
B|----------------------------------------------------------------------------|
G|-------2-0-------------2-0---------------2-0--------------2-0--9-9-9-9-9-9--|
D|-0-2-------2-0h2-0-2-------2-0h2-0-2----------2-0h2-0-2--------9-9-9-9-9-9--|
A|-----0---------------0-----------------0----------------0------7-7-7-7-7-7--|
E|---------------------------------------------------------------0-0-0-0-0-0--|
[ Tab from: http://www.guitartabs.cc/tabs/w/white_stripes/instinct_blues_tab_ver_2.html ]
e|---------------------------------------------------------------------------|
B|-------------------------------------------------------------3-1-----------|
G|---2-0--9-9-9-9-9-9----2-0-9-9-9-9-9-9----2-0--9-9-9-9-9-9-------12-12-12--|
D|--------9-9-9-9-9-9--------9-9-9-9-9-9---------9-9-9-9-9-9-------12-12-12--|
A|-0------7-7-7-7-7-7--0-----7-7-7-7-7-7--0------7-7-7-7-7-70-----10-10-10--|
E|--------0-0-0-0-0-0--------0-0-0-0-0-0---------0-0-0-0-0-0-------0--0--0---|

e|---------------------------------------------------------------------------|
B|-----------------3-1--------7----------------------------------------------|
G|-12-12-12------------9-7-9-7-7-------9-9-9-9-9-9---------9-9-9-9-9-9-------|
D|-12-12-12------------9-7-9-5-7----2--9-9-9-9-9-9----2-0--9-9-9-9-9-9-------|
A|-10-10-10------------7-5-7---5-------7-7-7-7-7-7---------7-7-7-7-7-7-------|
E|-0--0--0------0-----------------0----0-0-0-0-0-0--0------0-0-0-0-0-0-------|

e|---------------------------------------------------------------------------|
B|---------------------------------------------------------------------------|
G|--------9-9-9-9-9-9--------------------------------------------------------|
D|---2-0--9-9-9-9-9-9--------------------------------------------------------|
A|--------7-7-7-7-7-7--------------------------------------------------------|
E|-0------0-0-0-0-0-0--------------------------------------------------------|

This is basically all the song apart from the chorus which comes were I left it.


| /  slide up
| \  slide down
| h  hammer-on
| p  pull-off
| ~  vibrato
| +  harmonic
| x  Mute note
=============================================================================
Comments