White Stripes - Instinct Blues Chords & Tabs

 

Instinct Blues Chords & Tabs

White Stripes Chords & Tabs

Version: 1 Type: Tab 0 ratings
1 star 2 stars 3 stars 4 stars 5 stars
comments

Instinct Blues Tab

The White Stripes - Instinct Blues
Written by - Jack White
Tabbed by - Tom Clayton
(and special thanks to Patrick Ferris from brokenbricks.com whos tab helped me complete mine)

fiddling at start

e|-------10-10b11r10p8--|  (about 7 times)
B|-10-------------------|
G|----------------------|
D|----------------------|
A|----------------------|
E|----------------------|

e|--------|
B|--------|
G|--------|
D|--------|
A|--------|
E|--12\1--|


intro

e|--------------------------------|
B|--------------------------------|
G|----0h2-0-----------------------|
D|-----------2--0h2-0--0h2---0----|
A|-0-----------------------3---0--|
E|--------------------------------|

verse

e|---------------------------------------|  (x4)
B|---------------------------------------|
G|----0h2-0-0----------------------------|
D|---------------------------------------|
A|-0-------------5h7-5h7-5h7-5h7-5h7-5h7-|
E|---------------0---0---0---0---0---0---|
[ Tab from: http://www.guitartabs.cc/tabs/w/white_stripes/instinct_blues_tab.html ]
e|---------------------------------------|
B|---------------------------------------|
G|-----5h7--5~---------------------------|
D|-0-------------5h7-5h7-5h7-5h7-5h7-5h7-|
A|---------------0---0---0---0---0---0---|
E|---------------------------------------|

e|----------------------------------------|
B|--------------------------5-------------|
G|-----5h7--5~-----7--7--5-----5b---------|
D|-0--------------------------------------|
A|----------------------------------------|
E|----------------------------------------|

e|---------------------------------------|
B|---------------------------------------|
G|----0h2-0-0----------------------------|
D|---------------------------------------|
A|-0-------------5h7-5h7-5h7-5h7-5h7-5h7-|
E|---------------0---0---0---0---0---0---|

e|---------------------------------------|
B|---------------------------------------|
G|----0h2-0-0----------------------------|
D|---------------------------------------|
A|-0-------------5h7-5h7-5h7-5h7-5-3-----|
E|---------------0---0---0---0-----------|
Comments