White Stripes - Im Finding It Harder To Be A Gentleman Chords & Tabs

 

Im Finding It Harder To Be A Gentleman Chords & Tabs

White Stripes Chords & Tabs

Version: 1 Type: Bass Tab 0 ratings
1 star 2 stars 3 stars 4 stars 5 stars
comments

Im Finding It Harder To Be A Gentleman Bass Tab

Mainly, the riffs are these:


Verse (play this a few times)
G-------------------------------------------|
D-------------------------------------------|
A-------------------------------------------|
E-3-3-5-5-3-3-3-3-5-5-5-5-3-3-3-3-----------|
[ Tab from: http://www.guitartabs.cc/tabs/w/white_stripes/im_finding_it_harder_to_be_a_gentleman_btab.html ]
Pre Chorus:(eg from 0.13 till 0.17)
G-------------------------------------------|
D-------------------------------------------|
A-------------------------------------------|
E--3~---------------------------------------|

chorus (you play this 2 times)
G-------------------------------------------|
D-------------------------------------------|
A-------------2-----2-2-2-2-----------------|
E-3-3-3-3-3-3---1-1---------5-3-------------|

After that the song remains the same with only a few pauses.

Find the order and then enjoy!

By Lemonidas
Comments