White Stripes - I Think I Smell A Rat Chords & Tabs

 

I Think I Smell A Rat Chords & Tabs

White Stripes Chords & Tabs

Version: 9 Type: Tab 0 ratings
1 star 2 stars 3 stars 4 stars 5 stars
comments

I Think I Smell A Rat Tab

                            the white stripes tabs
                            i think i smell a rat

                              tuning-standard

e------------------------------------------------------------------|
b-10-12-13-12-10-8-10-----------10-12-13-12-10-8-10----------------|
g------------------------------------------------------------------|
d---------------------2-2-2-5-7--------------------------2-2-2-5-2-|
a---------------------2-2-2-5-7--------------------------2-2-2-5-2-|
e---------------------0-0-0-3-5--------------------------0-0-0-3-0-|
[ Tab from: http://www.guitartabs.cc/tabs/w/white_stripes/i_think_i_smell_a_rat_tab_ver_9.html ]
e---------------------------------------------------------0-|
b-5-7-8-7-5-3-5-------------10-12-13-12-10-8-12-----------0-|
g----------------2-2-2-5-7----------------------2-2-2-5-2-0-|
d----------------2-2-2-5-7----------------------2-2-2-5-2---|
a----------------0-0-0-3-5----------------------0-0-0-3-0---|
e-----------------------------------------------------------|

e----------------------------------------------------------------|
b----------------------------------------------------------------|
g----------------------------------------------------------------|
d----------------------------------------------------2---5-5---5-|
a-----------------------------2----------------------2---5-5---5-|
e------------------------0---------------------------0---3-3---3-|
   ooh,i think i smell a rat  ooh,i think i smell a rat
Comments