White Stripes - I Think I Smell A Rat Chords & Tabs

 

I Think I Smell A Rat Chords & Tabs

White Stripes Chords & Tabs

Version: 3 Type: Tab 0 ratings
1 star 2 stars 3 stars 4 stars 5 stars
comments

I Think I Smell A Rat Tab

   
I Think I Smell a Rat
By The White Stripes
Tabbed by Robert Tabb
wrt2@students.uwf.edu

e|----------------0-0-0-3-0--
B|----0-1-0-------1-1-1-0-1--
G|--2-------2-0-2-2-2-2-0-2--
D|----------------2-2-2-0-2--
A|----------------0-0-0-2-0--
E|----------------------3----

e|----------------0-0-0-3-0--
B|----0-1-0-------1-1-1-0-0--
G|--2-------2-0-2-2-2-2-0-1--
D|----------------2-2-2-0-2--
A|----------------0-0-0-2-2--
E|----------------------3-0--
[ Tab from: http://www.guitartabs.cc/tabs/w/white_stripes/i_think_i_smell_a_rat_tab_ver_3.html ]
e|----------------0-0-0-1-0-
B|----------------0-0-0-0-1-
G|------0---------1-1-1-0-2-
D|--2-3---3-2-0-2-2-2-2-0-2-
A|----------------2-2-2-2-0-
E|----------------0-0-0-3---

e|----------------0-0-0-3-0--
B|----0-1-0-------1-1-1-0-1--
G|--2-------2-0-2-2-2-2-0-2--
D|----------------2-2-2-0-2--
A|----------------0-0-0-2-0--
E|----------------------3----
                 
[hold that last Am]   E
Oh, I think I smell a rat
                      Am
Oh, I think I smell a rat


[ I don't think it's necessary to tab the rest
since it just repeats lots of times.  Just 
listen to the song to get the right rhythm]

Enjoy!
Comments