White Stripes - I Think I Smell A Rat Chords & Tabs

 

I Think I Smell A Rat Chords & Tabs

White Stripes Chords & Tabs

Version: 2 Type: Tab 0 ratings
1 star 2 stars 3 stars 4 stars 5 stars
comments

I Think I Smell A Rat Tab

Song: I Think I Smell A Rat
Artist: The White Stripes
CD: White Blood Cells
Tabed By: DaNe WiLsOn @ billabong7686_@hotmail.com (Forth Tab)

This song isn't as good as the rest in my opinion but it doesn't sound to bad on Guitar. 
standard tuning eBGDAE

Intro

Riff No.1 (repeat twice)

e-----5-7-8-7-5-3-5--------------------
B--------------------------------------
G--------------------------------------
D-------------------7--7--7--5--7------
A-------------------7--7--7--5--7------
E-------------------5--5--5--3--5------

Riff No 2
[ Tab from: http://www.guitartabs.cc/tabs/w/white_stripes/i_think_i_smell_a_rat_tab_ver_2.html ]
e--------------------------------------
B----5-6-8-6-5-3-5---------------------
G-------------------7--7--7--5--7------
D-------------------7--7--7--5--7------
A-------------------5--5--5--3--5------
E--------------------------------------

Then do Riff 1 again

Riff 3 (Verus)


e--------------------
B--------------------
G--------------------
D------7--7--5-------
A------7--7--5-------
E------5--5--3-------

Thats it, to easy. Any comments please send to me at billabong7686_@hotmail.com

P.S Hi Dane Ellevsen and Matt Samson (Surfing is Kool)



Comments