White Stripes - I Think I Smell A Rat Chords & Tabs

 

I Think I Smell A Rat Chords & Tabs

White Stripes Chords & Tabs

Version: 2 Type: Bass Tab 0 ratings
1 star 2 stars 3 stars 4 stars 5 stars
comments

I Think I Smell A Rat Bass Tab

Chorus
G|---15-17-18-15-13-15p13---------------------||
D|--------------------------------------------||
A|---------------------------0-0-0----0-------||
E|---------------------------------3----------||

G|---15-17-18-15-13-15p13---------------------||
D|--------------------------------------------||
A|---------------------------0-0-0------------||
E|---------------------------------3-0--------||


G|-------------------------------------------||
D|---17-19-20-19-17-15-17--------------------||
A|--------------------------------0----------||
E|------------------------0-0-0-3------------||
[ Tab from: http://www.guitartabs.cc/tabs/w/white_stripes/i_think_i_smell_a_rat_btab_ver_2.html ]
G|---15-17-18-15-13-15p13---------------------||
D|--------------------------------------------||
A|---------------------------0-0-0----0-------||
E|---------------------------------3----------||

Verse

G|-------------------------------------------------||
D|-------------------------------------------------||
A|-------------------------------------------------||
E|--5--5-5-5--5-5-5--5-5-5--5-5-5---5-5-5---5-5-5--||


G|-------------------------------------------------||
D|-------------------------------------------------||
A|-------------------------------------------------||
E|--5--5-5-5--5-5-5--5-5-5--5-5-5---5-5-5---5-5-5--||

G|--------------------------------||
D|--------------------------------||
A|--------------------------------||
E|--5--5-5-5--5-5-5--5-5-5--5-5-5-||

The order is: 

Chorus, Verse Chorus, Verse, Chorus (without the 4th line)
Comments