White Stripes - I Think I Smell A Rat Chords & Tabs

 

I Think I Smell A Rat Chords & Tabs

White Stripes Chords & Tabs

Version: 1 Type: Bass Tab 0 ratings
1 star 2 stars 3 stars 4 stars 5 stars
comments

I Think I Smell A Rat Bass Tab

#----------------------------------PLEASE NOTE---------------------------------#
#This file is the author's own work and represents their interpretation of the-#
#song. You may only use this file for private study, scholarship, or research.-#
#------------------------------------------------------------------------------#

White Stripes - I Think I Smell A Rat
Submitted By: Gies
EMail: ry_gies@hotmail.com


Chorus
G|---0-2-3-2-0---0---------------------||
D|-------------3-----------------------||
A|-------------------------------------||
E|--------------------4-4-4-2-4--------||x2

G|-------------------------------------||
D|---1-3-4-3-1-0-1---------------------||
A|-------------------------------------||
E|--------------------0-0-0-2-4--------||

G|---0-2-3-2-0---0---------------------||
D|-------------3-----------------------||
A|-------------------------------------||
E|--------------------4-4-4-2-4~-------||
Verse
G|-------------------------------------------------||
D|-------------------------------------------------||
A|-------------------------------------------------||
E|--2--4-4-2--4-4-2--4-4-2--4-4-2---4-4-2---4-4-2--||


G|-------------------------------------------------||
D|-------------------------------------------------||
A|-------------------------------------------------||
E|--2--4-4-2--4-4-2--4-4-2--4-4-2---4-4-2---4-4-2--||


G|----------------------------------||
D|----------------------------------||
A|----------------------------------||
E|--2--4-4-2--4-4-2--4-4-2--4-4-2---||

Chorus
G|---0-2-3-2-0---0---------------------||
D|-------------3-----------------------||
A|-------------------------------------||
E|--------------------4-4-4-2-4--------||
[ Tab from: http://www.guitartabs.cc/tabs/w/white_stripes/i_think_i_smell_a_rat_btab.html ]
G|---5-6-8-6-5-3-5---------------------||
D|-------------------------------------||
A|-------------------------------------||
E|--------------------4-4-4-2-4--------||

G|-------------------------------------||
D|---1-3-4-3-1-0-1---------------------||
A|-------------------------------------||
E|--------------------0-0-0-2-4--------||

G|---0-2-3-2-0---0---------------------||
D|-------------3-----------------------||
A|-------------------------------------||
E|--------------------4-4-4-2-4~-------||

Verse
G|-------------------------------------------------||
D|-------------------------------------------------||
A|-------------------------------------------------||
E|--2--4-4-2--4-4-2--4-4-2--4-4-2---4-4-2---4-4-2--||


G|-------------------------------------------------||
D|-------------------------------------------------||
A|-------------------------------------------------||
E|--2--4-4-2--4-4-2--4-4-2--4-4-2---4-4-2---4-4-2--||


G|----------------------------------||
D|----------------------------------||
A|----------------------------------||
E|--2--4-4-2--4-4-2--4-4-2--4-4-2---||

Chorus
G|---0-2-3-2-0---0---------------------||
D|-------------3-----------------------||
A|-------------------------------------||
E|--------------------4-4-4-2-4--------||

G|---5-6-8-6-5-3-5---------------------||
D|-------------------------------------||
A|-------------------------------------||
E|--------------------4-4-4-2-4--------||

G|-------------------------------------||
D|---1-3-4-3-1-0-1---------------------||
A|-------------------------------------||
E|--------------------0-0-0-2-4--------||

G|---0-2-3-2-0---0---------------------||
D|-------------3-----------------------||
A|-------------------------------------||
E|--------------------4-4-4-2-4~-------||
~=let note ring
Comments