White Stripes - I Just Dont Know What To Do With Myself Chords & Tabs

 

I Just Dont Know What To Do With Myself Chords & Tabs

White Stripes Chords & Tabs

Version: 1 Type: Tab 0 ratings
1 star 2 stars 3 stars 4 stars 5 stars
comments

I Just Dont Know What To Do With Myself Tab

   
BAND: THE WHITE STRIPES
SONG: I JUST DON'T KNOW WHAT TO DO WITH MYSELF
ALBUM: ELEPHANT
TABBED BY: Kevin Scott

***** INTRO *****

      G       C
E|----3-3-----0-0-----3--x---------------|
B|----0-0-----1-1-----0--x---------------|
G|----0-0-----0-0-----0--x---------------|
D|----0-0-----2-2-----0--x---------------|   X2
A|----2-2--3--3-3-----2--x--5--5-4-3---0-|
E|-3--3-3----------3--3--x---------------|

***** VERSE *****

E|---3-3----0-0----3--x-----3-3------|
B|---0-0----1-1----0--x-----0-0------|
G|---0-0----0-0----0--x-----0-0------|
D|---0-0----2-2----0--x-----0-0------|     X?
A|---2-2----3-3----2--x-----2-2------|
E|---3-3-----------3--x-----3-3------|

***** CHORUS *****

Do a rake stroke, slightly plam muted for this part
[ Tab from: http://www.guitartabs.cc/tabs/w/white_stripes/i_just_dont_know_what_to_do_with_myself_tab.html ]
     Am             F
E|--------------------1--1----1-----|
B|---1--1----1--------1--1----1-----|
G|---2--2----2--------2--2----2-----|
D|---2--2----2-x2-----3--3----3-x2--|     X2
A|-0-0--0--0-2--------3--3----3-----|
E|-----------------1--1--1--1-1-----|

Then this as normal.

E|--------------3-----|
B|-1-1-1-1-1----0-----|
G|-0-0-0-0-0----0-----|
D|-2-2-2-2-2----0-----|     X1
A|-3-3-3-3-3----2-----|
E|--------------3-----|

Then:

E|---3-3----0-0-0-0--------------|
B|---0-0----1-1-1-1----Sometimes-|
G|---0-0----0-0-0-0----play a G--|
D|---0-0----2-2-2-2----here------|     X?
A|---2-2----3-3-3-3--------------|
E|---3-3-------------------------|

***** OUTRO *****

      G       C
E|----3-3-----0-0-----3--x--10---10--8-7~-|
B|----0-0-----1-1-----0--x----------------|
G|----0-0-----0-0-----0--x----------------|
D|----0-0-----2-2-----0--x----------------|   X3
A|----2-2--3--3-3-----2--x----------------|
E|-3--3-3----------3--3--x----------------|

Then play the last bit of the chorus with a G at the end.




punchme2@hotmail.com
Comments