White Stripes - I Cant Wait Chords & Tabs

 

I Cant Wait Chords & Tabs

White Stripes Chords & Tabs

Version: 6 Type: Tab 0 ratings
1 star 2 stars 3 stars 4 stars 5 stars
comments

I Cant Wait Tab

I can't wait - White Stripes


Intro/Verses
1|---------------------------------------------------------------------------
2|---------------------------------------------------------------------------
3|------2----------------------------0--------0------------------------------
4|----2---2--------3-----------0--------0--------0-----0---------------------
5|--0-----------3-----3-----2-----2--------2--------2------------------------
6|-----------1-----------3---------------------------------------------------
[ Tab from: http://www.guitartabs.cc/tabs/w/white_stripes/i_cant_wait_tab_ver_6.html ]
"Who do you think you're messing with girl?....."
1|--x-x-x-x------------------------------------------------------------------
2|--x-x-x-x------------------------------------------------------------------
3|--x-x-x-x-2-2-2-2-2-2------------------------------------------------------
4|--x-x-x-x-2-2-2-2-2-2-3-3-3-3-3-3-5-5-5-5-5-5-5-5-5-5-5--------------------
5|--x-x-x-x-0-0-0-0-0-0-3-3-3-3-3-3-5-5-5-5-5-5-5-5-5-5-5--------------------
6|--x-x-x-x-------------1-1-1-1-1-1-3-3-3-3-3-3-3-3-3-3-3--------------------
repeat this 4x

"Firts you said I was blind...."
1|---------------------------------------------------------------------------
2|---------------------------------------------------------------------------
3|-4-4-2----------------------------x----------------------------------------
4|-4-4-2----------------------------x-5-5------------------------------------
5|-2-2-4- repeat several times then-x-5-5------------------------------------
6|------------------------------------3-3------------------------------------

"I thought you made up your mind " is E,  G,  D,  A  (4x), then G and:

1|-------------------------
2|-------------------------
3|-------------2-----------
4|------0----2-------------
5|----2----0---------------
6|--3----------------------
                      then go back to verses
Comments