White Stripes - Hotel Yorba Chords & Tabs

 

Hotel Yorba Chords & Tabs

White Stripes Chords & Tabs

Version: 5 Type: Tab 0 ratings
1 star 2 stars 3 stars 4 stars 5 stars
comments

Hotel Yorba Tab

   
White Stripes - Hotel Yorba

Guitar - Jack White

0:00

Intro:

Gtr. 1 (acoustic)




e---------3-------------3---------------|
b-------3---------------3---------------|
g-----0-----0--------(0)----------------|
d-----0-----0-----0--(0)------0-----0---|
a-------------0h2---------0h2---0h2-----|
e---3-----------------------------------|

0:04

Verse Chords:


       G5           C           D          G5

e   |---3---|   |---0---|   |---2---|   |---3---|
b   |---3---|   |---1---|   |---3---|   |---3---|
g   |---0---|   |---0---|   |---2---|   |---0---|
d   |---0---|   |---2---|   |---0---|   |---0---|
a   |---x---|   |---3---|   |-------|   |---x---|
e   |---3---|   |-------|   |-------|   |---3---|

0:25

Chorus Chords:
[ Tab from: http://www.guitartabs.cc/tabs/w/white_stripes/hotel_yorba_tab_ver_5.html ]
       G5           C           D          G5          F5          G5

e   |---3---|   |---0---|   |---2---|   |-------|   |-------|   |---3---|
b   |---3---|   |---1---|   |---3---|   |-------|   |-------|   |---3---|
g   |---0---|   |---0---|   |---2---|   |-------|   |-------|   |---0---|
d   |---0---|   |---2---|   |---0---|   |---5---|   |---3---|   |---0---|
a   |---x---|   |---3---|   |-------|   |---5---|   |---3---|   |---x---|
e   |---3---|   |-------|   |-------|   |---3---|   |---1---|   |---3---|

1:15

Interlude (same as verse, but strum each chord once)

2:04

Outro Chords:


        C          G5

e   |---0---|   |---3---|
b   |---1---|   |---3---|
g   |---0---|   |---0---|
d   |---2---|   |---0---|
a   |---3---|   |---x---|
e   |-------|   |---3---|

That's all!
Comments