White Stripes - Hello Operator Chords & Tabs

 

Hello Operator Chords & Tabs

White Stripes Chords & Tabs

Version: 1 Type: Tab 2 ratings
1 star 2 stars 3 stars 4 stars 5 stars
comments

Hello Operator Tab

Artist: White Stripes
Song Title: Hello Operator 
CD: De Stijl 
Track 2  

Tabbed by GuitarAnarchist
Comments & Corrections: thegrammarcop@hotmail.com

Standard Tuning EAGDBe
b = bend up one semitone
/ = slide up
x = rake


Intro
E|-----|
B|-----|
G|-----|
D|--4--|
A|--4--|
E|--2--|  

E|---------------------------------------------------------|
B|---------------------------------------------------------|
G|--11--11-11-11-11---11-11-10-11-11--11-11-11-10-9--7-8---|
D|---------------------------------------------------------|
A|---------------------------------------------------------|
E|---------------------------------------------------------|


Verse 1
E|-----|
B|-----|
G|-----|
D|--9--|
A|--9--|
E|--7--|  

E|--------------|
B|--------------|
G|--/11-10-9-7--|
D|--------------|
A|--------------|
E|--------------|

E|-----|
B|-----|
G|-----|
D|--4--|
A|--4--|
E|--2--|  

E|----------|
B|----------|
G|--9b-/7---|
D|----------|
A|----------|
E|----------|

E|-----|
B|-----|
G|-----|
D|--9--|
A|--9--|
E|--7--|  

E|--------------|
B|--------------|
G|--/11-10-9-7--|
D|--------------|
A|--------------|
E|--------------|

E|-----|
B|-----|
G|-----|
D|--4--|
A|--4--|
E|--2--| 

E|----------|
B|--10------|
G|-----9b---|
D|----------|
A|----------|
E|----------| 

E|-----|
B|-----|
G|-----|
D|--9--|
A|--9--|
E|--7--|  
     Hello operator, 

E|-----|
B|-----|
G|-----|
D|--4--|
A|--4--|
E|--2--|  
     can you give me number nine?

E|-----|
B|-----|
G|-----|
D|--9--|
A|--9--|
E|--7--|  
     Can I see you later?  

E|--------------|
B|--------------|
G|--/11-10-9-7--|
D|--------------|
A|--------------|
E|--------------|
                          
E|-----|
B|-----|
G|-----|
D|--4--|
A|--4--|
E|--2--|  
     Will you give me back my dime?

E|-----|
B|-----|
G|-----|
D|--9--|
A|--9--|
E|--7--|  
     Turn me oscillator,

E|---------|
B|---------|
G|--9b-/7--|
D|---------|
A|---------|
E|---------|

E|-----|
B|-----|
G|-----|
D|--4--|
A|--4--|
E|--2--|  
     twisty with a dollar bill

E|-----|
B|-----|
G|-----|
D|--9--|
A|--9--|
E|--7--|                        
     Mailman bring the paper, 

E|-----|
B|-----|
G|-----|
D|--4--|
A|--4--|
E|--2--|       
     leave it on my window sill

E|-----|
B|-----|
G|-----|
D|--9--|
A|--9--|
E|--7--| 

(Drum Sticks Interlude)
 

Chorus
E|-----------------|-----------------|-----------------|-----------------|
B|-----------------|-----------------|-----------------|-----------------|
G|--7-7-7----------|--7-7-7---9-9----|--7-7-7----------|-----------------|
D|--7-7-7-7-9-9----|--7-7-7-7-9-9----|--7-7-7-7-9-9----|--7-7-7-6-4-4----|
A|--5-5-5-7-9-9----|--5-5-5-7-7-7----|--5-5-5-7-7-7----|--7-7-7-4-4-4----|
E|--------5-7-7----|--------5--------|--------5-7-7----|--5-5-5-4-2-2----|

E|-----------------|-----------------|-----------------|-----------------|
B|-----------------|-----------------|-----------------|-----------------|
G|--7-7-7----------|--7-7-7---9-9----|--7-7-7----------|--9-9-9-10-11----|
D|--7-7-7-7-9-9----|--7-7-7-7-9-9----|--7-7-7-7-9-9----|--7-7-7-8--9-----|
A|--5-5-5-7-9-9----|--5-5-5-7-7-7----|--5-5-5-7-7-7----|--7-7-7-8--9-----|
E|--------5-7-7----|--------5--------|--------5-7-7----|-----------------|
[ Tab from: http://www.guitartabs.cc/tabs/w/white_stripes/hello_operator_tab.html ]
E|---------------------------------------------------------|
B|---------------------------------------------------------|
G|--11--11-10-11-10---11-11-10-11-11--11-11-11-10-9--7h8---|
D|---------------------------------------------------------|
A|---------------------------------------------------------|
E|---------------------------------------------------------|


Verse 2

E|-----|
B|-----|
G|-----|
D|--9--|
A|--9--|
E|--7--|  

E|--------------|
B|--------------|
G|--/11-10-9-7--|
D|--------------|
A|--------------|
E|--------------|

E|-----|
B|-----|
G|-----|
D|--4--|
A|--4--|
E|--2--|  

E|----------|
B|----------|
G|--9b-/7---|
D|----------|
A|----------|
E|----------|

E|-----|
B|-----|
G|-----|
D|--9--|
A|--9--|
E|--7--|  

E|--------------|
B|------10------|
G|--10b----9b---|
D|--------------|
A|--------------|
E|--------------|

E|-----|
B|-----|
G|-----|
D|--4--|
A|--4--|
E|--2--|  

E|-------------------------|
B|-------------------------|
G|--/11-11-11-10-9---------|
D|-----------------12-9----|
A|-------------------------|
E|-------------------------|

E|-----|
B|-----|
G|-----|
D|--9--|
A|--9--|
E|--7--|  
     Find a canary:  

E|-----|
B|-----|
G|-----|
D|--4--|
A|--4--|
E|--2--|    
     a bird to bring my message home

E|-----|
B|-----|
G|-----|
D|--9--|
A|--9--|
E|--7--|  
     Carry my obituary,                              

E|--------------|
B|--------------|
G|--9b-/7-------|
D|--------------|
A|--------------|
E|--------------|

E|-----|
B|-----|
G|-----|
D|--4--|
A|--4--|
E|--2--|  
     coffin doesn't have a phone

E|-----|
B|-----|
G|-----|
D|--9--|
A|--9--|
E|--7--|  
     How ya gonna get the money? 

E|---------|
B|---------|
G|--9b-/7--|
D|---------|
A|---------|
E|---------|
               
E|-----|
B|-----|
G|-----|
D|--4--|
A|--4--|
E|--2--|          
     Send papers to an empty home

E|-----|
B|-----|
G|-----|
D|--9--|
A|--9--|
E|--7--|  
     How ya gonna get the money?  

E|-----|
B|-----|
G|-----|
D|--4--|
A|--4--|
E|--2--|  
     Nobody to answer the phone

E|-----|
B|-----|
G|-----|
D|--9--|
A|--9--|
E|--7--|  

(Drum Sticks Interlude)


Chorus
E|-----------------|-----------------|-----------------|-----------------|
B|-----------------|-----------------|-----------------|-----------------|
G|--7-7-7----------|--7-7-7---9-9----|--7-7-7----------|-----------------|
D|--7-7-7-7-9-9----|--7-7-7-7-9-9----|--7-7-7-7-9-9----|--7-7-7-6-4-4----|
A|--5-5-5-7-9-9----|--5-5-5-7-7-7----|--5-5-5-7-7-7----|--7-7-7-4-4-4----|
E|--------5-7-7----|--------5--------|--------5-7-7----|--5-5-5-4-2-2----|

E|-----------------|-----------------|-----------------|-----------------|
B|-----------------|-----------------|-----------------|-----------------|
G|--7-7-7----------|--7-7-7---9-9----|--7-7-7----------|--9-9-9-10-11----|
D|--7-7-7-7-9-9----|--7-7-7-7-9-9----|--7-7-7-7-9-9----|--7-7-7-8--9-----|
A|--5-5-5-7-9-9----|--5-5-5-7-7-7----|--5-5-5-7-7-7----|--7-7-7-8--9-----|
E|--------5-7-7----|--------5--------|--------5-7-7----|-----------------|

E|---------------------------------------------------------|
B|---------------------------------------------------------|
G|--11-10-11-10-11-10--11-11-11-11-11-10-10/11-10-9-7h8----|
D|---------------------------------------------------------|
A|---------------------------------------------------------|
E|---------------------------------------------------------|


Outro
E|---------------------------|
B|---------------------------|
G|---------------------------|
D|--9—--x-xx-xx--4--x-xx-xx -|
A|--9---x-xx-xx--4--x-xx-xx -| x4
E|--7---x-xx-xx--2--x-xx-xx -|






Comments