White Stripes - Girl You Have No Faith In Medicine Chords & Tabs

 

Girl You Have No Faith In Medicine Chords & Tabs

White Stripes Chords & Tabs

Version: 4 Type: Tab 0 ratings
1 star 2 stars 3 stars 4 stars 5 stars
comments

Girl You Have No Faith In Medicine Tab

   
White Stripes - Girl, You Have No Faith In Medicine
Tuning: Standard (E A D G B E)
Tabbed by: Sofa_dofa

E|-----------------------------||
B|-----------------------------||
G|-----------------------------||
D|-----------------------------||
A|-2-5-5-5-2-5-5-5-2-5-5-2-----||play this twice ignore the first 
E|-0-3-3-3-0-3-3-3-0-3-3-0-----||note the second time.

then onto...
E|------------------------------------------------------||
B|------------------------------------------------------||
G|------------------------------------------------------||
D|------------------------------------------------------||
A|-2-7-7-7-2-7-7-7-2-7-7-2--5-5-5-2-5-5-5-2-5-5-2-------||
E|-0-5-5-5-0-5-5-5-0-5-5-0--3-3-3-0-3-3-3-0-3-3-0-------||
[ Tab from: http://www.guitartabs.cc/tabs/w/white_stripes/girl_you_have_no_faith_in_medicine_tab_ver_4.html ]
and then...
E|------------------------------------------------------||
B|------------------------------------------------------||
G|------------------------------------------------------||
D|------------------------------------------------------||
A|-2-9-9-9-2-9-9-9-2-9-9-2--5-5-5-2-5-5-5-2-5-5-2-------||
E|-0-7-7-7-0-7-7-7-0-7-7-0--3-3-3-0-3-3-3-0-3-3-0-------||

Solo 1
E||-7b8~~~~-7p5------------------------||
B||-------------7p5--------------------||
G||-----------------7--7p5-------------||
D||------------------------7p5---------||
A||----------------------------7p5-----||
E||--------------------------------7p5-||

Solo 2
E||7b8~~~~-7p5-----------------||
B||------------7p5-------------||
G||----------------7-7p5-------||
D||----------------------------||
A||----------------------------||
E||----------------------------||
Solo 3
E||-9b11(11)~~~~-h9p7h9p7h9p7h9p7h9p7--7b-||
B||---------------------------------------||
G||---------------------------------------||
D||---------------------------------------||
A||---------------------------------------||
E||---------------------------------------||


Solo 4
E||----9-7---------------||
B||-7b-----7-5-----------||
G||-7b---------9-7-------||
D||----------------7p5---||
A||--------------------7-||
E||----------------------||
Comments