White Stripes - Fell In Love With A Girl Chords & Tabs

 

Fell In Love With A Girl Chords & Tabs

White Stripes Chords & Tabs

Version: 8 Type: Tab 0 ratings
1 star 2 stars 3 stars 4 stars 5 stars
comments

Fell In Love With A Girl Tab

Easy easy song here, I've added some scratches because there
 was a scratchy sort of sound in the song, it was probably 
 someone sneezing or something, but it adds some interest
 into it. I use the middle pickup selection, with the bridge
 on 10 and the neck on about 6. You don't need to be fussy
 with getting the timing right. 

  Intro
 |--------------0--0-0--0-0--2--2-2--2-2--0--0-0--0-0--|
 |-4--4-4--4-4--2--2-2--2-2--3--3-3--3-3--0--0-0--0-0--|
 |-4--4-4--4-4--2--2-2--2-2--2--2-2--2-2-x1--1-1--1-1--|
 |-4--4-4--4-4--2--2-2--2-2--0--0-0--0---x2--2-2--2-2--|
 |-2--2-2--2-2--0--0-0--0-0---------------2--2-2--2-2--|
 |-----------------------------------------------------|
[ Tab from: http://www.guitartabs.cc/tabs/w/white_stripes/fell_in_love_with_a_girl_tab_ver_8.html ]
  Verse
 |------------0--0-0--0--2--2-2--2--0--0-0--0-
 |-4--4-4--4--2--2-2--2--3--3-3--3--0--0-0--0-
 |-4--4-4--4-x2--2-2--20-2--2-2--2--1--1-1--1-
 |-4--4-4--4-x2--2-2--2x-0--0-0--0--2--2-2--2-
 |-2--2-2--2--0--0-0--0-------------2--2-2--2-
 |--------------------------------------------

  ------------0--0-0--0--2--2-2--2--0--0-0--0-
  -4--4-4--4--2--2-2--2--3--3-3--3--0--0-0--0-
  -4--4-4--4--2--2-2--2--2--2-2--2--1--1-1--1-
  -4--4-4--4--2--2-2--2--0--0-0--0--2--2-2--2-
  -2--2-2--2--0--0-0--0-------------2--2-2--2-
  --------------------------------------------
 

  -----------------------2--2-2--2------------
  ------------2--2-2--2--3--3-3--3--0--0-0--0-
  ------------2--2-2--2--2--2-2--2--1--1-1--1-
  -4--4-4--4--2--2-2--2--0--0-0--0--2--2-2--2-
  -4--4-4--4--0--0-0--0-------------2--2-2--2-
  -2--2-2-x2------------------------x---------

  -----------------------2-|
  ------------2--2-2--2--3-|
  ------------2--2-2--2--2-|
  -4--4-4--4--2--2-2--2--0-|
  -4--4-4--4--0--0-0--0----|
 --2--2-2--2---------------|

 Order
 Intro x 1
 Verse x 5

 If anyone can get closer than that, I'd love to hear from you.
 Email me at Natfish011@aol.com send comments too, or corrections.
Comments