White Stripes - Fell In Love With A Girl Chords & Tabs

 

Fell In Love With A Girl Chords & Tabs

White Stripes Chords & Tabs

Version: 15 Type: Tab 0 ratings
1 star 2 stars 3 stars 4 stars 5 stars
comments

Fell In Love With A Girl Tab

   
-------------------------------------------------------------------------------
Fell In Love With A Girl - The White Stripes
-------------------------------------------------------------------------------
Tabbed by: _awwsugar- Kat
Email: whaoom@msn.com

Tuning: Regular- eBGDAE

This is my first tab, but I'm copying it out the proper White Stripes sheet music book. 
quite easy to play, but it's really fast. But when you nail it, it's sounds great! If 
don't like it, don't go to hard on me, I'm only 13 and as I said, this is my first tab. Thanks

INTRO:
  B			  A			  D
e|----------------------------------------------------------2-----2--2-----2--2---0--|
B|-4-----4--4-----4--4---------2-----2--2-----2--2----------3-----3--3-----3--3---0--|
G|-4-----4--4-----4--4---0-----2-----2--2-----2--2---0------2-----2--2-----2--2---0--|
D|-4-----4--4-----4--4---0-----2-----2--2-----2--2---0------0-----0--0-----0--0---0--|
A|-2-----2--2-----2--2---0-----0-----0--0-----0--0---0-------------------------------|
E|-----------------------------------------------------------------------------------|

  E
e|-----------------------------------------------------------------------------------|
B|-----------------------------------------------------------------------------------|
G|-1-----1--1-----1--1---------------------------------------------------------------|
D|-2-----2--2-----2--2---0-----------------------------------------------------------|
A|-2-----2--2-----2--2---0-----------------------------------------------------------|
E|-0-----0--0-----0--0---0-----------------------------------------------------------|

VERSE 1+2:

  B	        A			        D
e|----------------------------------------------------------2-----2--2-----2--2---0--|
B|-4-----4--4-----4--4---------2-----2--2-----2--2----------3-----3--3-----3--3---0--|
G|-4-----4--4-----4--4---0-----2-----2--2-----2--2---0------2-----2--2-----2--2---0--|
D|-4-----4--4-----4--4---0-----2-----2--2-----2--2---0------0-----0--0-----0--0---0--|
A|-2-----2--2-----2--2---0-----0-----0--0-----0--0---0-------------------------------|
E|-----------------------------------------------------------------------------------|
 1:  Fell in love with a girl,______                  I fell in love once
 2:  Red hair with a curl_______                      Mellow roll for the flavour and the
  E
e|-----------------------------------------------------------------------------------|
B|-----------------------------------------------------------------------------------|
G|-1-----1--1-----1--1---------------------------------------------------------------|
D|-2-----2--2-----2--2---0-----------------------------------------------------------|
A|-2-----2--2-----2--2---0-----------------------------------------------------------|
E|-0-----0--0-----0--0---0-----------------------------------------------------------|
   And I most completely.
   Eyes for peeping.
  B	        A			         D
e|----------------------------------------------------------2-----2--2-----2--2---0--|
B|-4-----4--4-----4--4---------2-----2--2-----2--2----------3-----3--3-----3--3---0--|
G|-4-----4--4-----4--4---0-----2-----2--2-----2--2---0------2-----2--2-----2--2---0--|
D|-4-----4--4-----4--4---0-----2-----2--2-----2--2---0------0-----0--0-----0--0---0--|
A|-2-----2--2-----2--2---0-----0-----0--0-----0--0---0-------------------------------|
E|-----------------------------------------------------------------------------------|
          She's in love with the world,_____   but some-     times these feelings can be
      Can't keep away from the girl,____       I see         stars in my brain need a
  E
e|-----------------------------------------------------------------------------------|
B|-----------------------------------------------------------------------------------|
G|-1-----1--1-----1--1---------------------------------------------------------------|
D|-2-----2--2-----2--2---0-----------------------------------------------------------|
A|-2-----2--2-----2--2---0-----------------------------------------------------------|
E|-0-----0--0-----0--0---0-----------------------------------------------------------|
   So misleading
   A hal-lowed meeting.
  F#                           A			 D
e|---------------------------------------------------------2-----2--2-----2--2------|
B|-----------------------------2-----2--2-----2--2---------3-----3--3-----3--3------|
G|-3-----3--3-----3--3---------2-----2--2-----2--2---0-----2-----2--2-----2--2------|
D|-4-----4--4-----4--4---0-----2-----2--2-----2--2---0-----0-----0--0-----0--0---0--|
A|-4-----4--4-----4--4---0-----0-----0--0-----0--0---0---------------------------0--|
E|-2-----2--2-----2--2---0-------------------------------------------------------0--|
  She turns and says, "Are      you all right?" I said, "I  must be fine 'cos my
  Can't think of any           thing to do yeah, my  left brain knows that our


  E
e|-----------------------------------------------------------------------------------|
B|-----------------------------------------------------------------------------------|
G|-1-----1--1-----1--1---------------------------------------------------------------|
D|-2-----2--2-----2--2---0-----------------------------------------------------------|
A|-2-----2--2-----2--2---0-----------------------------------------------------------|
E|-0-----0--0-----0--0---0-----------------------------------------------------------|
   Heart's still beating."
   Love is fleeting
  F#                           A			        F#
e|---------------------------------------------------------------------------------|
B|-----------------------------2-----2--2-----2--2---------------------------------|
G|-3-----3--3-----3--3---------2-----2--2-----2--2---0-----3-----------------------|
D|-4-----4--4-----4--4---0-----2-----2--2-----2--2---0-----4-----------------------|
A|-4-----4--4-----4--4---0-----0-----0--0-----0--0---0-----4-----------------------|
E|-2-----2--2-----2--2---0---------------------------------2-----------------------|
   Come and kiss me by the     river side, yeah____        Boby says it's fine, he don't 
it cheating now
   She just looking for        something new yeah,   I     said it once before, but it 
repeating now.

VERSE 3:

  B	        A			         D
e|----------------------------------------------------------2-----2--2-----2--2---0--|
B|-4-----4--4-----4--4---------2-----2--2-----2--2----------3-----3--3-----3--3---0--|
G|-4-----4--4-----4--4---0-----2-----2--2-----2--2---0------2-----2--2-----2--2---0--|
D|-4-----4--4-----4--4---0-----2-----2--2-----2--2---0------0-----0--0-----0--0---0--|
A|-2-----2--2-----2--2---0-----0-----0--0-----0--0---0-------------------------------|
E|-----------------------------------------------------------------------------------|
3:       Ah,    ah       ah              ah.                      Ah        ah    ah

  E
e|-----------------------------------------------------------------------------------|
B|-----------------------------------------------------------------------------------|
G|-1-----1--1-----1--1---------------------------------------------------------------|
D|-2-----2--2-----2--2---0-----------------------------------------------------------|
A|-2-----2--2-----2--2---0-----------------------------------------------------------|
E|-0-----0--0-----0--0---0-----------------------------------------------------------|
             Ah.

  B	        A			         D
e|----------------------------------------------------------2-----2--2-----2--2---0--|
B|-4-----4--4-----4--4---------2-----2--2-----2--2----------3-----3--3-----3--3---0--|
G|-4-----4--4-----4--4---0-----2-----2--2-----2--2---0------2-----2--2-----2--2---0--|
D|-4-----4--4-----4--4---0-----2-----2--2-----2--2---0------0-----0--0-----0--0---0--|
A|-2-----2--2-----2--2---0-----0-----0--0-----0--0---0-------------------------------|
E|-----------------------------------------------------------------------------------|
3:       Ah,    ah       ah              ah.                      Ah        ah    ah

  E
e|-----------------------------------------------------------------------------------|
B|-----------------------------------------------------------------------------------|
G|-1-----1--1-----1--1---------------------------------------------------------------|
D|-2-----2--2-----2--2---0-----------------------------------------------------------|
A|-2-----2--2-----2--2---0-----------------------------------------------------------|
E|-0-----0--0-----0--0---0-----------------------------------------------------------|
             Ah.

  F#                           A			 D
e|---------------------------------------------------------2-----2--2-----2--2------|
B|-----------------------------2-----2--2-----2--2---------3-----3--3-----3--3------|
G|-3-----3--3-----3--3---------2-----2--2-----2--2---0-----2-----2--2-----2--2------|
D|-4-----4--4-----4--4---0-----2-----2--2-----2--2---0-----0-----0--0-----0--0---0--|
A|-4-----4--4-----4--4---0-----0-----0--0-----0--0---0---------------------------0--|
E|-2-----2--2-----2--2---0-------------------------------------------------------0--|
  Can't think of any           thing to do yeah, my  left brain knows that all

[ Tab from: http://www.guitartabs.cc/tabs/w/white_stripes/fell_in_love_with_a_girl_tab_ver_15.html ]
  E
e|-----------------------------------------------------------------------------------|
B|-----------------------------------------------------------------------------------|
G|-1-----1--1-----1--1---------------------------------------------------------------|
D|-2-----2--2-----2--2---0-----------------------------------------------------------|
A|-2-----2--2-----2--2---0-----------------------------------------------------------|
E|-0-----0--0-----0--0---0-----------------------------------------------------------|
   Love is fleeting.


  F#                           A			        F#
e|---------------------------------------------------------------------------------|
B|-----------------------------2-----2--2-----2--2---------------------------------|
G|-3-----3--3-----3--3---------2-----2--2-----2--2---0-----3-----------------------|
D|-4-----4--4-----4--4---0-----2-----2--2-----2--2---0-----4-----------------------|
A|-4-----4--4-----4--4---0-----0-----0--0-----0--0---0-----4-----------------------|
E|-2-----2--2-----2--2---0---------------------------------2-----------------------|
  She's just looking for something new well,               I said it once before, but it 
repeating now.


B	        A			        D
e|----------------------------------------------------------2-----2--2-----2--2---0--|
B|-4-----4--4-----4--4---------2-----2--2-----2--2----------3-----3--3-----3--3---0--|
G|-4-----4--4-----4--4---0-----2-----2--2-----2--2---0------2-----2--2-----2--2---0--|
D|-4-----4--4-----4--4---0-----2-----2--2-----2--2---0------0-----0--0-----0--0---0--|
A|-2-----2--2-----2--2---0-----0-----0--0-----0--0---0-------------------------------|
E|-----------------------------------------------------------------------------------|
 1:  Fell in love with a girl,______                  I fell in love once

  E
e|-----------------------------------------------------------------------------------|
B|-----------------------------------------------------------------------------------|
G|-1-----1--1-----1--1---------------------------------------------------------------|
D|-2-----2--2-----2--2---0-----------------------------------------------------------|
A|-2-----2--2-----2--2---0-----------------------------------------------------------|
E|-0-----0--0-----0--0---0-----------------------------------------------------------|
   And I most completely.

  B	        A			         D
e|----------------------------------------------------------2-----2--2-----2--2---0--|
B|-4-----4--4-----4--4---------2-----2--2-----2--2----------3-----3--3-----3--3---0--|
G|-4-----4--4-----4--4---0-----2-----2--2-----2--2---0------2-----2--2-----2--2---0--|
D|-4-----4--4-----4--4---0-----2-----2--2-----2--2---0------0-----0--0-----0--0---0--|
A|-2-----2--2-----2--2---0-----0-----0--0-----0--0---0-------------------------------|
E|-----------------------------------------------------------------------------------|
          She's in love with the world,_____   but some-     times these feelings can be

 E
e|-----------------------------------------------------------------------------------|
B|-----------------------------------------------------------------------------------|
G|-1-----1--1-----1--1---------------------------------------------------------------|
D|-2-----2--2-----2--2---0-----------------------------------------------------------|
A|-2-----2--2-----2--2---0-----------------------------------------------------------|
E|-0-----0--0-----0--0---0-----------------------------------------------------------|
   So misleading

 F#                           A			 D
e|---------------------------------------------------------2-----2--2-----2--2------|
B|-----------------------------2-----2--2-----2--2---------3-----3--3-----3--3------|
G|-3-----3--3-----3--3---------2-----2--2-----2--2---0-----2-----2--2-----2--2------|
D|-4-----4--4-----4--4---0-----2-----2--2-----2--2---0-----0-----0--0-----0--0---0--|
A|-4-----4--4-----4--4---0-----0-----0--0-----0--0---0---------------------------0--|
E|-2-----2--2-----2--2---0-------------------------------------------------------0--|
  She turns and says, "Are      you all right?" I said, "I  must be fine 'cos my


  E
e|-----------------------------------------------------------------------------------|
B|-----------------------------------------------------------------------------------|
G|-1-----1--1-----1--1---------------------------------------------------------------|
D|-2-----2--2-----2--2---0-----------------------------------------------------------|
A|-2-----2--2-----2--2---0-----------------------------------------------------------|
E|-0-----0--0-----0--0---0-----------------------------------------------------------|
   Heart's still beating."

  F#                           A			        F#
e|---------------------------------------------------------------------------------|
B|-----------------------------2-----2--2-----2--2---------------------------------|
G|-3-----3--3-----3--3---------2-----2--2-----2--2---0-----3-----------------------|
D|-4-----4--4-----4--4---0-----2-----2--2-----2--2---0-----4-----------------------|
A|-4-----4--4-----4--4---0-----0-----0--0-----0--0---0-----4-----------------------|
E|-2-----2--2-----2--2---0---------------------------------2-----------------------|
   Come and kiss me by the     river side, yeah____        Boby says it's fine, he don't 
it cheating now


  B	        A			         D
e|----------------------------------------------------------2-----2--2-----2--2---0--|
B|-4-----4--4-----4--4---------2-----2--2-----2--2----------3-----3--3-----3--3---0--|
G|-4-----4--4-----4--4---0-----2-----2--2-----2--2---0------2-----2--2-----2--2---0--|
D|-4-----4--4-----4--4---0-----2-----2--2-----2--2---0------0-----0--0-----0--0---0--|
A|-2-----2--2-----2--2---0-----0-----0--0-----0--0---0-------------------------------|
E|-----------------------------------------------------------------------------------|
3:       Ah,    ah       ah              ah.                      Ah        ah    ah

  E
e|-----------------------------------------------------------------------------------|
B|-----------------------------------------------------------------------------------|
G|-1-----1--1-----1--1---------------------------------------------------------------|
D|-2-----2--2-----2--2---0-----------------------------------------------------------|
A|-2-----2--2-----2--2---0-----------------------------------------------------------|
E|-0-----0--0-----0--0---0-----------------------------------------------------------|
             Ah.

  B	        A			         D
e|----------------------------------------------------------2-----2--2-----2--2---0--|
B|-4-----4--4-----4--4---------2-----2--2-----2--2----------3-----3--3-----3--3---0--|
G|-4-----4--4-----4--4---0-----2-----2--2-----2--2---0------2-----2--2-----2--2---0--|
D|-4-----4--4-----4--4---0-----2-----2--2-----2--2---0------0-----0--0-----0--0---0--|
A|-2-----2--2-----2--2---0-----0-----0--0-----0--0---0-------------------------------|
E|-----------------------------------------------------------------------------------|
3:       Ah,    ah       ah              ah.                      Ah        ah    ah

  E
e|-----------------------------------------------------------------------------------|
B|-----------------------------------------------------------------------------------|
G|-1-----1--1-----1--1---------------------------------------------------------------|
D|-2-----2--2-----2--2---0-----------------------------------------------------------|
A|-2-----2--2-----2--2---0-----------------------------------------------------------|
E|-0-----0--0-----0--0---0-----------------------------------------------------------|
             Ah.

  F#                           A			 D
e|---------------------------------------------------------2-----2--2-----2--2------|
B|-----------------------------2-----2--2-----2--2---------3-----3--3-----3--3------|
G|-3-----3--3-----3--3---------2-----2--2-----2--2---0-----2-----2--2-----2--2------|
D|-4-----4--4-----4--4---0-----2-----2--2-----2--2---0-----0-----0--0-----0--0---0--|
A|-4-----4--4-----4--4---0-----0-----0--0-----0--0---0---------------------------0--|
E|-2-----2--2-----2--2---0-------------------------------------------------------0--|
  Can't think of any           thing to do yeah, my  left brain knows that all


  E
e|-----------------------------------------------------------------------------------|
B|-----------------------------------------------------------------------------------|
G|-1-----1--1-----1--1---------------------------------------------------------------|
D|-2-----2--2-----2--2---0-----------------------------------------------------------|
A|-2-----2--2-----2--2---0-----------------------------------------------------------|
E|-0-----0--0-----0--0---0-----------------------------------------------------------|
   Love is fleeting.

F#                           A			        F#
e|---------------------------------------------------------------------------------|
B|-----------------------------2-----2--2-----2--2---------------------------------|
G|-3-----3--3-----3--3---------2-----2--2-----2--2---0-----3-----------------------|
D|-4-----4--4-----4--4---0-----2-----2--2-----2--2---0-----4-----------------------|
A|-4-----4--4-----4--4---0-----0-----0--0-----0--0---0-----4-----------------------|
E|-2-----2--2-----2--2---0---------------------------------2-----------------------|
  She's just looking for something new well,               I said it once before, but it 
repeating now.

<<<<<<<<<<>>>>>>>>>>>>>>>>
Comments