White Stripes - Fell In Love With A Girl Chords & Tabs

 

Fell In Love With A Girl Chords & Tabs

White Stripes Chords & Tabs

Version: 14 Type: Tab 0 ratings
1 star 2 stars 3 stars 4 stars 5 stars
comments

Fell In Love With A Girl Tab

The white stripes - Fell in love with a girl

Introduction:

E-------------|-------------|------------------|--------------|
B-------------|-------------|------------------|--------------|
G-------------|-------------|------------------|--------------|
D-9--9-9--9-9-|-7--7-7--7-7-|-12--12-12--12-12-|-2--2-2--2-2--|
A-9--9-9--9-9-|-7--7-7--7-7-|-12--12-12--12-12-|-2--2-2--2-2--|
E-7--7-7--7-7-|-5--5-5--5-5-|-10--10-10--10-10-|-0--0-0--0-0--|

Verse:

Fell in love with a girl
fell in love once and almost completely
she's in love with the world
but sometimes these feelings
can be so misleading
E-------------|-------------|------------------|--------------|
B-------------|-------------|------------------|--------------|
G-------------|-------------|------------------|--------------|
D-9--9-9--9-9-|-7--7-7--7-7-|-12--12-12--12-12-|-2--2-2--2-2--|
A-9--9-9--9-9-|-7--7-7--7-7-|-12--12-12--12-12-|-2--2-2--2-2--|   2x
E-7--7-7--7-7-|-5--5-5--5-5-|-10--10-10--10-10-|-0--0-0--0-0--|

she turns and says are you alright?
I said I must be fine cause my heart's still beating
come and kiss me by the riverside,

E-------------|-------------|------------------|--------------|
B-------------|-------------|------------------|--------------|
G-------------|-------------|------------------|--------------|
D-4--4-4--4-4-|-7--7-7--7-7-|-12--12-12--12-12-|-2--2-2--2-2--|
A-4--4-4--4-4-|-7--7-7--7-7-|-12--12-12--12-12-|-2--2-2--2-2--|  1  1/2x
E-2--2-2--2-2-|-5--5-5--5-5-|-10--10-10--10-10-|-0--0-0--0-0--|

bobby says it's fine he don't consider it cheating
E---------|
B---------|
G---------|
D----4----|
A----4----|
E----2----|



Red hair with a curl
mellow roll for the flavor
and the eyes were peeping
can't keep away from the girl
these two sides of my brain
need to have a meeting

E-------------|-------------|------------------|--------------|
B-------------|-------------|------------------|--------------|
G-------------|-------------|------------------|--------------|
D-9--9-9--9-9-|-7--7-7--7-7-|-12--12-12--12-12-|-2--2-2--2-2--|
A-9--9-9--9-9-|-7--7-7--7-7-|-12--12-12--12-12-|-2--2-2--2-2--|   2x
E-7--7-7--7-7-|-5--5-5--5-5-|-10--10-10--10-10-|-0--0-0--0-0--|


can't think of anything to do
my left brain knows that
all love is fleeting
she's just looking for something new

E-------------|-------------|------------------|--------------|
B-------------|-------------|------------------|--------------|
G-------------|-------------|------------------|--------------|
D-4--4-4--4-4-|-7--7-7--7-7-|-12--12-12--12-12-|-2--2-2--2-2--|
A-4--4-4--4-4-|-7--7-7--7-7-|-12--12-12--12-12-|-2--2-2--2-2--|  1  1/2x
E-2--2-2--2-2-|-5--5-5--5-5-|-10--10-10--10-10-|-0--0-0--0-0--|


and I said it once before but it bears repeating

E---------|
B---------|
G---------|
D----4----|
A----4----|
E----2----|


Ah ah ah ah ah ah ah ah!
[ Tab from: http://www.guitartabs.cc/tabs/w/white_stripes/fell_in_love_with_a_girl_tab_ver_14.html ]
E-------------|-------------|------------------|--------------|
B-------------|-------------|------------------|--------------|
G-------------|-------------|------------------|--------------|
D-9--9-9--9-9-|-7--7-7--7-7-|-12--12-12--12-12-|-2--2-2--2-2--|
A-9--9-9--9-9-|-7--7-7--7-7-|-12--12-12--12-12-|-2--2-2--2-2--|   2x
E-7--7-7--7-7-|-5--5-5--5-5-|-10--10-10--10-10-|-0--0-0--0-0--|


can't think of anything to do
my left brain knows that
all love is fleeting
she's just looking for something new

E-------------|-------------|------------------|--------------|
B-------------|-------------|------------------|--------------|
G-------------|-------------|------------------|--------------|
D-4--4-4--4-4-|-7--7-7--7-7-|-12--12-12--12-12-|-2--2-2--2-2--|
A-4--4-4--4-4-|-7--7-7--7-7-|-12--12-12--12-12-|-2--2-2--2-2--|  1  1/2x
E-2--2-2--2-2-|-5--5-5--5-5-|-10--10-10--10-10-|-0--0-0--0-0--|


and I said it once before but it bears repeating

E---------|
B---------|
G---------|
D----4----|
A----4----|
E----2----|

Fell in love with a girl
fell in love once and almost completely
she's in love with the world
but sometimes these feelings
can be so misleading
E-------------|-------------|------------------|--------------|
B-------------|-------------|------------------|--------------|
G-------------|-------------|------------------|--------------|
D-9--9-9--9-9-|-7--7-7--7-7-|-12--12-12--12-12-|-2--2-2--2-2--|
A-9--9-9--9-9-|-7--7-7--7-7-|-12--12-12--12-12-|-2--2-2--2-2--|   2x
E-7--7-7--7-7-|-5--5-5--5-5-|-10--10-10--10-10-|-0--0-0--0-0--|

she turns and says are you alright?
I said I must be fine cause my heart's still beating
come and kiss me by the riverside,

E-------------|-------------|------------------|--------------|
B-------------|-------------|------------------|--------------|
G-------------|-------------|------------------|--------------|
D-4--4-4--4-4-|-7--7-7--7-7-|-12--12-12--12-12-|-2--2-2--2-2--|
A-4--4-4--4-4-|-7--7-7--7-7-|-12--12-12--12-12-|-2--2-2--2-2--|  1  1/2x
E-2--2-2--2-2-|-5--5-5--5-5-|-10--10-10--10-10-|-0--0-0--0-0--|

bobby says it's fine he don't consider it cheating
E---------|
B---------|
G---------|
D----4----|
A----4----|
E----2----|

Ah ah ah ah ah ah!

E-------------|-------------|------------------|--------------|
B-------------|-------------|------------------|--------------|
G-------------|-------------|------------------|--------------|
D-9--9-9--9-9-|-7--7-7--7-7-|-12--12-12--12-12-|-2--2-2--2-2--|
A-9--9-9--9-9-|-7--7-7--7-7-|-12--12-12--12-12-|-2--2-2--2-2--|   2x
E-7--7-7--7-7-|-5--5-5--5-5-|-10--10-10--10-10-|-0--0-0--0-0--|

can't think of anything to do
my left brain knows that
all love is fleeting
she's just looking for something new

E-------------|-------------|------------------|--------------|
B-------------|-------------|------------------|--------------|
G-------------|-------------|------------------|--------------|
D-4--4-4--4-4-|-7--7-7--7-7-|-12--12-12--12-12-|-2--2-2--2-2--|
A-4--4-4--4-4-|-7--7-7--7-7-|-12--12-12--12-12-|-2--2-2--2-2--|  1  1/2x
E-2--2-2--2-2-|-5--5-5--5-5-|-10--10-10--10-10-|-0--0-0--0-0--|


and I said it once before but it bears repeating

E---------|
B---------|
G---------|
D----9----|
A----9----|
E----7----|

End          Espero les guste   I hope you like it        Rubas       TO tata
Comments