White Stripes - Fell In Love With A Girl Chords & Tabs

 

Fell In Love With A Girl Chords & Tabs

White Stripes Chords & Tabs

Version: 13 Type: Tab 0 ratings
1 star 2 stars 3 stars 4 stars 5 stars
comments

Fell In Love With A Girl Tab

I think it's very easy...

Intro:
E-------------|-------------|------------------|--------------|
B-------------|-------------|------------------|--------------|
G-------------|-------------|------------------|--------------|
D-9--9-9--9-9-|-7--7-7--7-7-|-12--12-12--12----|-5--5-5--5-5--|
A-9--9-9--9-9-|-7--7-7--7-7-|-12--12-12--12-12-|-5--5-5--5-5--|
E-7--7-7--7-7-|-5--5-5--5-5-|-10--10-10--10-10-|-3--3-3--3-3--|
[ Tab from: http://www.guitartabs.cc/tabs/w/white_stripes/fell_in_love_with_a_girl_tab_ver_13.html ]
Verse:
Fell in love with a girl fell in love once and almost completely...
E-------------|-------------|------------------|--------------|
B-------------|-------------|------------------|--------------|
G-------------|-------------|------------------|--------------|
D-9--9-9--9-9-|-7--7-7--7-7-|-12--12-12--12----|-5--5-5--5-5--|
A-9--9-9--9-9-|-7--7-7--7-7-|-12--12-12--12-12-|-5--5-5--5-5--|
E-7--7-7--7-7-|-5--5-5--5-5-|-10--10-10--10-10-|-3--3-3--3-3--|

She Turns And Says "are you alright?"...
E-------------|-------------|------------------|--------------|
B-------------|-------------|------------------|--------------|
G-------------|-------------|------------------|--------------|
D-4--4-4--4-4-|-7--7-7--7-7-|-12--12-12--12----|-5--5-5--5-5--|
A-4--4-4--4-4-|-7--7-7--7-7-|-12--12-12--12-12-|-5--5-5--5-5--|
E-2--2-2--2-2-|-5--5-5--5-5-|-10--10-10--10-10-|-3--3-3--3-3--|

End:
E-------------|-------------|------------------|--------------|
B-------------|-------------|------------------|--------------|
G-------------|-------------|------------------|--------------|
D-9--9-9--9-9-|-7--7-7--7-7-|-12--12-12--12----|-5--5-5--5-5--|
A-9--9-9--9-9-|-7--7-7--7-7-|-12--12-12--12-12-|-5--5-5--5-5--|
E-7--7-7--7-7-|-5--5-5--5-5-|-10--10-10--10-10-|-3--3-3--3-3--|


Finished. I hope you enjoy it!
@nn@
Comments