White Stripes - Fell In Love With A Girl Chords & Tabs

 

Fell In Love With A Girl Chords & Tabs

White Stripes Chords & Tabs

Version: 12 Type: Tab 0 ratings
1 star 2 stars 3 stars 4 stars 5 stars
comments

Fell In Love With A Girl Tab

    Tabber: Connor G.
    Song: Fell in love with a girl
    Artist: The white stipes
    Tuning: Standard
[ Tab from: http://www.guitartabs.cc/tabs/w/white_stripes/fell_in_love_with_a_girl_tab_ver_12.html ]
      Fell in love with...
   e------------------------------------------------|
   B------------------------------------------------|
   G------------------------------------------------|
   D------------------------------------------------| x3
   A-9-9-9-9-9--7-7-7-7-7--12-12-12-12-12--2-2-2-2-2|
   E-7-7-7-7-7--5-5-5-5-5--10-10-10-10-10--0-0-0-0-0|
      She turns and says...
   e------------------------------------------------|
   B------------------------------------------------|
   G------------------------------------------------|
   D------------------------------------------------|
   A-4-4-4-4-4--7-7-7-7-7--12-12-12-12-12--2-2-2-2-2|
   E-2-2-2-2-2--5-5-5-5-5--10-10-10-10-10--0-0-0-0-0|
      Bobby says its fine...
   e-------------------------|
   B-------------------------|
   G-------------------------|
   D-------------------------|
   A-4-4-4-4-4--7-7-7-7-7---4|
   E-2-2-2-2-2--5-5-5-5-5---2|
                     strum  ^ hard,
      Red hair with a...
   e------------------------------------------------|
   B------------------------------------------------|
   G------------------------------------------------|
   D------------------------------------------------| x2
   A-9-9-9-9-9--7-7-7-7-7--12-12-12-12-12--2-2-2-2-2|
   E-7-7-7-7-7--5-5-5-5-5--10-10-10-10-10--0-0-0-0-0|
      cant think of anything to do...
   e------------------------------------------------|
   B------------------------------------------------|
   G------------------------------------------------|
   D------------------------------------------------|
   A-4-4-4-4-4--7-7-7-7-7--12-12-12-12-12--2-2-2-2-2|
   E-2-2-2-2-2--5-5-5-5-5--10-10-10-10-10--0-0-0-0-0|
      shes just looking for ...
   e-------------------------|
   B-------------------------|
   G-------------------------|
   D-------------------------|
   A-4-4-4-4-4--7-7-7-7-7---4|
   E-2-2-2-2-2--5-5-5-5-5---2|
      Ah Ah Ah Ah...
   e------------------------------------------------|
   B------------------------------------------------|
   G------------------------------------------------|
   D------------------------------------------------| x2
   A-9-9-9-9-9--7-7-7-7-7--12-12-12-12-12--2-2-2-2-2|
   E-7-7-7-7-7--5-5-5-5-5--10-10-10-10-10--0-0-0-0-0|
      Cant think of anything....
   e------------------------------------------------|
   B------------------------------------------------|
   G------------------------------------------------|
   D------------------------------------------------|
   A-4-4-4-4-4--7-7-7-7-7--12-12-12-12-12--2-2-2-2-2|
   E-2-2-2-2-2--5-5-5-5-5--10-10-10-10-10--0-0-0-0-0|
      she's just looking for...
   e-------------------------|
   B-------------------------|
   G-------------------------|
   D-------------------------|
   A-4-4-4-4-4--7-7-7-7-7---4|
   E-2-2-2-2-2--5-5-5-5-5---2|
      Fell in love with a girl...
   e------------------------------------------------|
   B------------------------------------------------|
   G------------------------------------------------|
   D------------------------------------------------| x2
   A-9-9-9-9-9--7-7-7-7-7--12-12-12-12-12--2-2-2-2-2|
   E-7-7-7-7-7--5-5-5-5-5--10-10-10-10-10--0-0-0-0-0|
      she turned and said...
   e------------------------------------------------|
   B------------------------------------------------|
   G------------------------------------------------|
   D------------------------------------------------|
   A-4-4-4-4-4--7-7-7-7-7--12-12-12-12-12--2-2-2-2-2|
   E-2-2-2-2-2--5-5-5-5-5--10-10-10-10-10--0-0-0-0-0|
      Come in kiss me...
   e-------------------------|
   B-------------------------|
   G-------------------------|
   D-------------------------|
   A-4-4-4-4-4--7-7-7-7-7---4|
   E-2-2-2-2-2--5-5-5-5-5---2|

    Ah Ah Ah Ah...
   e------------------------------------------------|
   B------------------------------------------------|
   G------------------------------------------------|
   D------------------------------------------------| x2
   A-9-9-9-9-9--7-7-7-7-7--12-12-12-12-12--2-2-2-2-2|
   E-7-7-7-7-7--5-5-5-5-5--10-10-10-10-10--0-0-0-0-0|
      Cant think of anything....
   e------------------------------------------------|
   B------------------------------------------------|
   G------------------------------------------------|
   D------------------------------------------------|
   A-4-4-4-4-4--7-7-7-7-7--12-12-12-12-12--2-2-2-2-2|
   E-2-2-2-2-2--5-5-5-5-5--10-10-10-10-10--0-0-0-0-0|
      she's just looking for...
   e-------------------------|
   B-------------------------|
   G-------------------------|
   D-------------------------|
   A-4-4-4-4-4--7-7-7-7-7---4|
   E-2-2-2-2-2--5-5-5-5-5---2|

        thats it, please vote!
Comments