White Stripes - Fell In Love With A Girl Chords & Tabs

 

Fell In Love With A Girl Chords & Tabs

White Stripes Chords & Tabs

Version: 11 Type: Tab 0 ratings
1 star 2 stars 3 stars 4 stars 5 stars
comments

Fell In Love With A Girl Tab

   
Fell in Love With a Girl
as performed by The White Stripes
Words and Music by Jack White

Cut Time (4 beats sounds like 2 beats)
Standard Tuning


Intro

   B                          A
||--------------------------|--------------------------|
||-4-----4--4-----4--4--4---|-2-----2--2-----2--2------|
||-4-----4--4-----4--4--4-x-|-2-----2--2-----2--2------|
||-4-----4--4-----4--4--4-x-|-2-----2--2-----2--2----x-|
||-2-----2--2-----2--2--2-x-|-0-----0--0-----0--0----x-| {distorted}
||--------------------------|--------------------------|

  D                          E5
|--------------------------|--------------------------|
|-7-----7--7-----7--7------|--------------------------|
|-7-----7--7-----7--7------|--------------------------|
|-7-----7--7-----7--7--0---|-2-----2--2-----2--2------|
|-5-----5--5-----5--5--0---|-2-----2--2-----2--2------|
|--------------------------|-0-----0--0-----0--0------|


Verse

  B                         A
|-------------------------|-------------------------|
|-4-----4--4-----4--4-----|-2-----2--2-----2--2-----|
|-4-----4--4-----4--4-----|-2-----2--2-----2--2-----|
|-4-----4--4-----4--4-----|-2-----2--2-----2--2-----|
|-2-----2--2-----2--2-----|-0-----0--0-----0--0-----|
|-------------------------|-------------------------|
     Fell in love with a girl                    I

  D                         E5
|-------------------------|-------------------------|
|-7-----7--7-----7--7-----|-------------------------|
|-7-----7--7-----7--7-----|-------------------------|
|-7-----7--7-----7--7-----|-2-----2--2-----2--2-----|
|-5-----5--5-----5--5-----|-2-----2--2-----2--2-----|
|-------------------------|-0-----0--0-----0--0-----|
  fell  in love  once and   almost completely

  B                         A
|-------------------------|-------------------------|
|-4-----4--4-----4--4-----|-2-----2--2-----2--2-----|
|-4-----4--4-----4--4-----|-2-----2--2-----2--2-----|
|-4-----4--4-----4--4--0--|-2-----2--2-----2--2-0-0-|
|-2-----2--2-----2--2--0--|-0-----0--0-----0--0-0-0-|
|-------------------------|-------------------------|
  She's in love with the world                but some


  D                         E5
|-------------------------|-------------------------|
|-7-----7--7-----7--7-----|-------------------------|
|-7-----7--7-----7--7-----|-------------------------|
|-7-----7--7-----7--7-----|-2-----2--2-----2--2--2--|
|-5-----5--5-----5--5-----|-2-----2--2-----2--2--2--|
|----------------------0--|-0-----0--0-----0--0--0--|
  times this feelings can be so      misleading


Bridge

  F#5                       A
|-------------------------|-------------------------|
|-------------------------|-2-----2--2-----2--2--2--|
|-------------------------|-2-----2--2-----2--2--2--|
|-4-----4--4-----4--4-----|-2-----2--2-----2--2--2--|
|-4-----4--4-----4--4-----|-0-----0--0-----0--0--0--|
|-2-----2--2-----2--2--0--|-------------------------|
    She turns and said "Are you alright?" I said I

  D                         E5
|-------------------------|-------------------------|
|-7-----7--7-----7--7-----|-------------------------|
|-7-----7--7-----7--7--x--|-------------------------|
|-7-----7--7-----7--7--x--|-2-----2--2-----2--2--2--|
|-5-----5--5-----5--5--x--|-2-----2--2-----2--2--2--|
|-------------------------|-0-----0--0-----0--0--0--|
  must  be  fine 'cause my  heat's still beating

  F#5                       A
|-------------------------|-------------------------|
|-------------------------|-2-----2--2-----2--2-----|
|-------------------------|-2-----2--2-----2--2-----|
|-4-----4--4-----4--4--4--|-2-----2--2-----2--2-----|
|-4-----4--4-----4--4--4--|-0-----0--0-----0--0--0--|
|-2-----2--2-----2--2--2--|----------------------0--|
   Come and kiss me by the  riverside      yeah

  F#5
|-------------------------|-------------------------|
|-------------------------|-------------------------|
|-------------------------|-------------------------|
|-4-----------------------|-------------------------|
|-4-----------------------|-------------------------|
|-2-----------------------|-------------------------|
 Bobby says it's fine he don't consider it cheating now


Verse
[ Tab from: http://www.guitartabs.cc/tabs/w/white_stripes/fell_in_love_with_a_girl_tab_ver_11.html ]
B                    A
Red hair with a curl	Mellow
D                           E5
role for the flavor and the eyes for peeping
B                             A
Can't keep away from the girl	Two
D                         E5
sides of my brain need to have a meeting


Bridge

F#5                    A
Can't think of anything to do Yeah my
D                         E5
left brain knows that all love is fleeting
F#5                    A
She's just lookin' for somethin' new yeah I
F#5
said it once before but it bears repeating now


Chorus

    B                         A
|:|-------------------------|-------------------------|
|:|-4-----4--4-----4--4--4--|-2-----2--2-----2--2--2--|
|:|-4-----4--4-----4--4--4--|-2-----2--2-----2--2--2--|
|:|-4-----4--4-----4--4--4--|-2-----2--2-----2--2--2--|
|:|-2-----2--2-----2--2--2--|-0-----0--0-----0--0--0--|
|:|-------------------------|-------------------------|
           Ah             ah

  D                         E5
|-------------------------|-------------------------|:|
|-7-----7--7-----7--7-----|-------------------------|:|
|-7-----7--7-----7--7--x--|-------------------------|:|
|-7-----7--7-----7--7--x--|-2-----2--2-----2--2--2--|:|
|-5-----5--5-----5--5--x--|-2-----2--2-----2--2--2--|:|
|-------------------------|-0-----0--0-----0--0--0--|:|
         ah             ah                         ah


Bridge

  F#5                       A
|-------------------------|-------------------------|
|-------------------------|-2-----2--2-----2--2--2--|
|-------------------------|-2-----2--2-----2--2--2--|
|-4-----4--4-----4--4-----|-2-----2--2-----2--2--2--|
|-4-----4--4-----4--4--0--|-0-----0--0-----0--0--0--|
|-2-----2--2-----2--2--0--|-------------------------|
        Can't think of anything   to do    yeah my

  D                         E5
|-------------------------|-------------------------|
|-7-----7--7-----7--------|-------------------------|
|-7-----7--7-----7--------|-------------------------|
|-7-----7--7-----7--------|-2-----2--2-----2--2--2--|
|-5-----5--5-----5--------|-2-----2--2-----2--2--2--|
|-------------------0--0--|-0-----0--0-----0--0--0--|
  left  brain knows that all love is fleeting

  F#5                       A
|-------------------------|-------------------------|
|-------------------------|-2-----2--2-----2--2--2--|
|-------------------------|-2-----2--2-----2--2--2--|
|-4-----4--4-----4--4-----|-2-----2--2-----2--2--2--|
|-4-----4--4-----4--4--0--|-0-----0--0-----0--0--0--|
|-2-----2--2-----2--2--0--|-------------------------|
        She's just looking for somethin' new yeah I

  F#5
|-------------------------|-------------------------|
|-------------------------|-------------------------|
|-------------------------|-------------------------|
|-4-----------------------|-------------------------|
|-4-----------------------|-------------------------|
|-2-----------------------|-------------------------|
   said it once before but it bears repeating now


Verse

B                        A
Fell in love with a girl	I
D                     E5
fell in love once and almost completely
B                            A
She's in love with the world	but some
D                           E5
times these feelings can be so misleading


Bridge

F#5                     A
She turns and said "Are you alright?" I said I
D                      E5
must be fine 'cause my heart's still beating
F#5                     A
Come and kiss me by the riverside yeah
F#5
Bobby says it's fine He don't consider it cheating now


Chorus

B          A          D            E5
Ah	ah		Ah	ah	ah
B          A          D            E5
Ah	ah		Ah	ah


Bridge

F#5                    A
Can't think of anything to do yeah my
D                         E5
left brain knows that all love is fleeting
F#5                     A
She's just lookin' for somethin' new yeah I
F#5
said it once before but it bears repeating now


Outro

  B
|-------------------------||
|-4-----------------------||
|-4-----------------------||
|-4-----------------------||
|-2-----------------------||
|-------------------------||
Comments