White Stripes - Fell In Love With A Girl Chords & Tabs

 

Fell In Love With A Girl Chords & Tabs

White Stripes Chords & Tabs

Version: 1 Type: Tab 10 ratings
1 star 2 stars 3 stars 4 stars 5 stars
comments

Fell In Love With A Girl Tab

The White Stripes
Fell in Love with a Girl

Tabbed by Ryan Sandor
BladePhantom74@hotmail.com

Here are the chords of the song.  You can 
figure out when to play them.  It's fun
to play but it's short. Oh well.
[ Tab from: http://www.guitartabs.cc/tabs/w/white_stripes/fell_in_love_with_a_girl_tab.html ]
-------------------------------------
-------------------------------------
-4-4-4-4--2-2-2-2--7-7-7-7----------- Repeat
-4-4-4-4--2-2-2-2--7-7-7-7--2-2-2-2--
-2-2-2-2--0-0-0-0--5-5-5-5--2-2-2-2--
----------------------------0-0-0-0--

-------------------------------------
-------------------------------------
----------2-2-2-2--7-7-7-7----------- Repeat
-4-4-4-4--2-2-2-2--7-7-7-7--2-2-2-2--
-4-4-4-4--0-0-0-0--5-5-5-5--2-2-2-2--
-2-2-2-2--------------------0-0-0-0--
Comments