White Stripes - Fell In Love With A Girl Chords & Tabs

 

Fell In Love With A Girl Chords & Tabs

White Stripes Chords & Tabs

Version: 1 Type: Bass Tab 0 ratings
1 star 2 stars 3 stars 4 stars 5 stars
comments

Fell In Love With A Girl Bass Tab

Even though there is no bass, this is what you could play:

|----------------------------------|
|----------------------------------|
|-----------------5-5-5-5----------|
|-7-7-7-7-5-5-5-5---------0-0-0-0--|
[ Tab from: http://www.guitartabs.cc/tabs/w/white_stripes/fell_in_love_with_a_girl_btab.html ]
|----------------------------------|
|----------------------------------|
|-----------------5-5-5-5----------|
|-2-2-2-2-5-5-5-5---------0-0-0-0--|

|-------------------|
|-------------------|
|-------------------|
|-2-2-2-2-5-5-5-5-2-|

This are the riffs. Play the first a couple of times, then the second (one or two times)
and then the third once. It's easy to figure out how many times you have to play the first riff.

Enjoy!!!
Comments