White Stripes - Expecting Chords & Tabs

 

Expecting Chords & Tabs

White Stripes Chords & Tabs

Version: 2 Type: Tab 0 ratings
1 star 2 stars 3 stars 4 stars 5 stars
comments

Expecting Tab

#----------------------------------PLEASE NOTE--------------------------------#
#This file is the author's own work and represents their interpretation of the#
#song. You may only use this file for private study, scholarship, or research.#
#-----------------------------------------------------------------------------#
#-- File created with Instab - http://www.pconline.com/~smcarey/instab.html --#
#-----------------------------------------------------------------------------#

Author/Artist: The White Stripes
Title: Expecting
Album: Whie Blood Cells
Transcribed by: Jack white
this is a cool song i worked out when i was at a friends house just 
messing about its pretty easy some of the timings are a bit sketchy
if you know the song you'll know what i mean. just mess about with 
the timing etc and put the song together shouldnt be too hard
anyway enough of my ramblings here it is, have fun

------------------------------------------------------------------------------
------------------------------------------------------------------------------
------------------------------------------------------------------------------
-10-12-12-12-15-10------------------------------------------------------------
-10-12-12-12-15-10--x8--------------------------------------------------------
-8--10-10-10-13-8-------------------------------------------------------------
  play this 8 times for the intro and the first verse                         
[ Tab from: http://www.guitartabs.cc/tabs/w/white_stripes/expecting_tab_ver_2.html ]
------------------------------------------------------------------------------
------------------------------------------------------------------------------
------------------------------------------------------------------------------
--5-7-7-7-10-3----------------------------------------------------------------
--5-7-7-7-10-3--x4------------------------------------------------------------
--3-5-5-5-8--5----------------------------------------------------------------
  this is like the "forever" bit played four times then....                   

------------------------------------------------------------------------------
------------------------------------------------------------------------------
------------------------------------------------------------------------------
-10/12--------------------------------------------------------15-10-----------
-10/12----------12----------------12--------------------------15-10-----------
-8-/10-10-10-10-10-10-10-10-10-10-10-10-10-10-10-10-10-8------13-8------------
 just play with this bit until the start of the next verse                    

------------------------------------------------------------------------------
------------------------------------------------------------------------------
------------------------------------------------------------------------------
------------------------------------------------------------------------------
------------------------------------------------------------------------------
------------------------------------------------------------------------------
                                                                              

Comments