White Stripes - Do Chords & Tabs

 

Do Chords & Tabs

White Stripes Chords & Tabs

Version: 1 Type: Tab 0 ratings
1 star 2 stars 3 stars 4 stars 5 stars
comments

Do Tab

   
----------------------------------------------------------------------------
			     Do- The White Stripes
----------------------------------------------------------------------------

Tuning:standard

e|-------------------------------------------------------------------|
B|-------------------------------------------------------------------|
G|-1--1---2p1-2p1--1--2p1----------------0---------------------------|
D|-2--2------------2-----------------0h2-----------------------------|
A|-2--2------------2-------------0h2---------------------------------|
E|---------------------------0h3-------------------------------------|
   Pm..
[ Tab from: http://www.guitartabs.cc/tabs/w/white_stripes/do_tab.html ]
verse:
e|--------------------------------------------------------------------|
B|--------------------------------------------------------------------|
G|--1--1--2p1-2p1--1--2p1-2p1-----------------------------------------|
D|--2--2-----------2--------------------------------------------------|
A|--2--2-----------2--------------------------------------------------|
E|-------------------------------------------3----------2----0--------|
   pm..                              but i didnt know what to do..

e|-------------------------------------------------------------------|
B|-------------------------------------------------------------------|
G|---4---4-----------------------------------------------------------|
D|---4---4------------------------------------5-5-5---7-7-7----------|
A|---2---2------------------------------------5-5-5---7-7-7----------|
E|---------------------------3--2--0----------3-3-3---5-5-5----------|
     doesnt matter....

its all there, all u gotta do is work out timing n where each bits played n ur set. majedissa2@hotmail.com

| /  slide up
| \  slide down
| h  hammer-on
| p  pull-off
| ~  vibrato
| +  harmonic
| x  Mute note
============================================================================
Comments