White Stripes - Denial Twist Chords & Tabs

 

Denial Twist Chords & Tabs

White Stripes Chords & Tabs

Version: 3 Type: Tab 0 ratings
1 star 2 stars 3 stars 4 stars 5 stars
comments

Denial Twist Tab

  

|-------------|
|-------------|
|-----8-------|
|--10-8-8-10--|
|--10-6-8-10--|
|--8----6-8---|thats kinda it all the way through all the verses

|------------|
|------------|
|--8---------|
|--8--8--10--|and thts the bit after every 4 bars of the top chords
|--6--8--10--|
|-----6--8---|
[ Tab from: http://www.guitartabs.cc/tabs/w/white_stripes/denial_twist_tab_ver_3.html ]
|--------------------------------------------------------------------------|
|--------------------------------------------------------------------------|
|--------------------------------------------------------------------------|
|-10-8---------------------------------------------------------------------|
|------10-8-10-8-8-10-8-6-8-6----------------------------------------------|
|--------------------------------------------------------------------------|
and thts the riff
Comments