White Stripes - Denial Twist Chords & Tabs

 

Denial Twist Chords & Tabs

White Stripes Chords & Tabs

Version: 2 Type: Tab 0 ratings
1 star 2 stars 3 stars 4 stars 5 stars
comments

Denial Twist Tab

   
 Capo 3rd fret: Key of C Major
The A position lends itself to this piano song more than the C position, so I've put a 
on the third fret.  The guitar riffs in the chorus are digitally lowered an octave (or
played on an  bass, if you prefer).


 VERSE 1:
        A N.C.               C N.C.
 If you think that a kiss is all in the lips
      G N.C.             A N.C.
 Come on, you got it all wrong, man
            A N.C.                   C N.C.
 And if you think that our dance was all in the hips
     G N.C.            A
 Oh, well, then do the twist
        A N.C.                   C N.C.
 If you take holdin' hands, it's all in the fingers
      G N.C.                     A              /G
 Grab hold of the soul where the memory lingers
     A N.C.              C N.C.
 And  make sure to never do it with them singers
                G N.C.               A
 'Cause they'll tell everyone in the world
 /G          C         G        A
 What he was thinkin' about the girl
                C         G        A    /G
 Yeah what he's thinkin' about the girl
 CHORUS:
 A A /G
       Oh,
 E
   The boat, yeah, you know she's rockin' it
 G
   And the truth, well, you know there's no stoppin' it
[ Tab from: http://www.guitartabs.cc/tabs/w/white_stripes/denial_twist_tab_ver_2.html ]
    A
     8v
 e|---------------------------------------------------------|
 B|---------------------------------------------------------|
 G|---------------------------------------------------------|
 D|-/7--7--5h7p5---/7-/7---5h7-5h7p5----5h7p5----7p5--------|
 A|--------------7-------------------7--------7------7p5h7--|
 E|---------------------------------------------------------|
                     yeah

      E
   Oh, the boat, yeah, you know she's still rockin' it
 G
   And the truth, well, you know there's no stoppin' it

    A
    8v
 e|--------------------------------------|
 B|--------------------------------------|
 G|--------------------------------------|
 D|-7--5---------------------------------|
 A|-------7--5--5h7--b5--5b6r5p3-5p3--0--|
 E|--------------------------------------|

 
 CHORUS:
 A A /G
       Oh,
 E
   The truth, well, you know there's no stoppin' it
 G
   And the boat, well, you know she's still rockin' it

    A  A N.C.      A  A N.C.
    8v
 e|-----------------------|
 B|-----------------------|
 G|-----------------------|
 D|-----------------------|
 A|-7--7\----------7--7\--|
 E|-----------------------|
             yeah

 A A /G

 E
   The boat, well, you know she's still rockin' it
 G
   And the truth, yeah, you know there's no stoppin' it

 (Piano keys)
 e|-------------5-5-5-5-5-5-5-5--5-------5--5--|
 B|--------------------------------------------|
 G|-------2------------------------------------|
 D|--------------------------------------------|
 A|--------------------------------------------|
 E|--------------------------------------------|
    8v (Played together)
 e|--------------------------------------------|
 B|--------------------------------------------|
 G|--------------------------------------------|
 D|-------------0----/2-----5-----7--7-5-7b~---|
 A|-0-----3------------------------------------|
 E|--------------------------------------------|

......................................................


              C         G         A
 But you were hearin' a different song
Comments