White Stripes - Death Letter Live Chords & Tabs

 

Death Letter Live Chords & Tabs

White Stripes Chords & Tabs

Version: 1 Type: Tab 0 ratings
1 star 2 stars 3 stars 4 stars 5 stars
comments

Death Letter Live Tab

i worked most of this out which im proud of coz slide guitar is hard 2 teach ur self
jacks kay hollowbody is tuned to A which can also be tuned 2 G for all u accoustic players
this is the balckpool lights version as there r many diferent verions of it

intro-this took me ages 2 work out:
play with slide
|--3~-3\2-0-3/5-3-0-8\3p0-2/3-2/3\2-0---------------------|
|--3~-3\2-0-3/5-3-0-8\3p0-2/3-2/3\2-0---------------------|
|--3~-3\2-0-3/5-3-0-8\3p0-2/3-2/3\2-0---------------------|
|--3~-3\2-0-3/5-3-0-8\3p0-2/3-2/3\2-0---------------------|
|---------------------------------------------------------|
|---------------------------------------------------------|
|---------------------------------------------------------|


|--------12~~~~~~~~~----------3---3/5-------------|
|-10/12---------------------------3/5-------------|
|-10/12-----------------0-2/3-----3/5-------------|
|-------------------------------------------------|
|-------------------------------------------------|
|-------------------------------------------------|

|--3/2-0-3/5-3-0-3-0-3/5-3\2-0-3\2-0--------------------|
|--3/2-0-3/5-3-0-3-0-3/5-3\2-0-3\2-0--------------------|
|--3/2-0-3/5-3-0-3-0-3/5-3\2-0-3\2-0--------------------|
|-------------------------------------------------------|
|-------------------------------------------------------|
|-------------------------------------------------------|

|-12~~~~~~~~~~~~~~~~~~~~~~~~~----------------------|
|-12~~~~~~~~~~~~~~~~~~~~~~~~~----------------------|
|-12~~~~~~~~~~~~~~~~~~~~~~~~~----------------------|
|--------------------------------------------------|
|--------------------------------------------------|
|--------------------------------------------------|

then the louder fast bit comes in with meg hitting the symbol

|----12\3-0-2/3---------------------------------------------------------|
|----12\3-0-2/3-----8\2-0------3----8\2-0-3-3/5-3--0-------3------------|continued
|----12\3-0-2/3------------2/3-------------------------2/3--------------|
|-----------------------------------------------------------------------|
|-----------------------------------------------------------------------|
|-----------------------------------------------------------------------|
[ Tab from: http://www.guitartabs.cc/tabs/w/white_stripes/death_letter_live_tab.html ]
|---------------------------------------0--------------|
|----8\2--0-------3-----8\2---2/3\2-3/5-0--------------|
|-------------2/3-------------2/3\2-3/5-0--------------|
|---------------------------------------0--------------|
|------------------------------------------------------|
|------------------------------------------------------|

|-------12-----15/14-----------12~~~~~~~---------------------|
|--/12---------15/--13---------------------------------------|
|--/12---------15/------12-----------------------------------|
|--------------------------12--------------------------------|
|------------------------------------------------------------|
|------------------------------------------------------------|

this bit i sort of made up:
|---/5\---------------------------5-------------------------------|
|---/5\-------3---------5\3-0-3/5------5\2-0-------3--------------|
|---/5\-----\3-----------------------------------/3-0----3--------|
|-----------------------------------------------------/3----------|
|-----------------------------------------------------------------|
|-----------------------------------------------------------------|

|-3\2-0-3\2-0-----15\14---------------12~~~~~~~~~~~~~--------------|
|-3\2-0-3\2-0-----15\---13-----------------------------------------|
|-3\2-0-3\2-0-----15\-------12--11/12------------------------------|
|-----------0------------------------------------------------------|
|-----------0------------------------------------------------------|
|------------------------------------------------------------------|
|------------------------------------------------------------------|

im dont have a clue how he does that amazingly fast bit so i made upmy own bit again:

|--/7----------------------------------/5-----------------0------|
|--/7---0--0-3-0-3-0--3/5--0-3-0-3-5---/5---3-2-0----3/---0------|
|--/7----------------------------------/5---3-2-0----3/---0------|
|--/7----------------------------------/5---3-2-0----3/---0------|
|---------------------------------------------------------0------|
|----------------------------------------------------------------|

then it goes 2 the riff

|------------------------------------------------|
|------------3-0-3-3-3-3-3-----------------------|
|------------0-0-0-0-0-0-0-----------------------|
|------------------------------------------------|
|--0-----0---------------------------------------|
|-----3b-----------------------------------------|

well thats about it
its quite hard 2 learn at first
any questions or comments contact:smileyhappydude@hotmail.com ( yeah its gay i no)
enjoy :)
Comments