White Stripes - Dead Leaves And The Dirty Ground Chords & Tabs

 

Dead Leaves And The Dirty Ground Chords & Tabs

White Stripes Chords & Tabs

Version: 6 Type: Tab 1 rating
1 star 2 stars 3 stars 4 stars 5 stars
comments

Dead Leaves And The Dirty Ground Tab

   
-------------------------------------------------------------------------------
	Dead Leaves And The Dirty Ground - The White Stripes
-------------------------------------------------------------------------------

Tabbed by: Andy Baker
Email: bakker110@hotmail.com

Tuning: Normal

Intro

            A5      G5                  A5      G5            
e|-----------x-------x------x-----x------x-------x------x-----x----------------------|
B|-----------x-------x------x-----x------x-------x------x-----x----------------------|
G|-----------2-------x------x-----x------2-------x------x-----x----------------------|
D|-----------2-------0------x-----x------2-------0------x-----x----------------------|
A|-----------0-------x------x-----x------0-------x------x-----x----------------------|
E|-----------x-------3------2-----1------x-------3------2-----1----------------------|

           A5 (G5b)                                             (X2)   
e|----------x---------------------------------------------------------------|
B|----------x---------------------------------------------------------------|
G|----------2---------------------------------------------------------------|
D|----------2--------------------------------------------------------     -------|
A|----------0---------------------------------------------------------------|
E|----------x---------------------------------------------------------------|

Main Bit

            A      G      C      D      A                       (X2)
e|---------------------------------------------------------------------------|
B|---------------------------------------------------------------------------|
G|---------------------------------------------------------------------------|
D|---------------------------------------------------------------------------|
A|---------------------------------------------------------------------------|
E|---------------------------------------------------------------------------|

This bit’s not how you play it - listen to the song to work out how its played. These are just the basic chord shapes to play it in.





[ Tab from: http://www.guitartabs.cc/tabs/w/white_stripes/dead_leaves_and_the_dirty_ground_tab_ver_6.html ]
           A      G      C      D      A    (X2)   F      G      A   e|---------0------3------0------2------0-----------1------3------0-------------------|
B|---------2------3------1------3------2-----------1------3------2-------------------|
G|---------2------4------0------2------2-----------2------4------2-------------------|
D|---------2------5------2------0------2-----------3------5------2-------------------|
A|---------0------5------3------0------0-----------3------5------0-------------------|
E|---------x------3------0------x------x-----------1------3------x-------------------|

Chorus

           A      G      G      C      D      A                 (X2)
e|---------0------3------3------0------2------0------------------------------------|
B|---------2------3------3------1------3------2------------------------------------|
G|---------2------4------4------0------2------2------------------------------------|
D|---------2------5------5------2------0------2------------------------------------|
A|---------0------5------5------3------0------0------------------------------------|
E|---------x------3------3------0------x------x------------------------------------|

Middle 8

           D      D      D      D      A      A      A      A      D
e|---------------------------------------------------------------------------|
B|---------------------------------------------------------------------------|
G|---------------------------------------------------------------------------|
D|---------------------------------------------------------------------------|
A|---------------------------------------------------------------------------|
E|---------------------------------------------------------------------------|


           D      D      D      F      F      G      G
e|------------------------------1------1------3------3---------------------------|
B|------------------------------1------1------3------3---------------------------|
G|------------------------------2------2------4------4---------------------------|
D|------------------------------3------3------5------5---------------------------|
A|------------------------------3------3------5------5---------------------------|
E|------------------------------1------1------3------3---------------------------|

Work Out the order yourself - its pretty easy. If you like it please email me and tell me @          bakker110@hotmail.com 


| /  slide up
| \  slide down
| h  hammer-on
| p  pull-off
| ~  vibrato
| +  harmonic
| x  Mute note
| b  Bend
===============================================================================

Comments