White Stripes - Dead Leaves And The Dirty Ground Chords & Tabs

 

Dead Leaves And The Dirty Ground Chords & Tabs

White Stripes Chords & Tabs

Version: 3 Type: Tab 3 ratings
1 star 2 stars 3 stars 4 stars 5 stars
comments

Dead Leaves And The Dirty Ground Tab

Title "Dead Leaves and the Dirty Ground"
Artist "The White Stripes"
Tabbed by me Paul
DON"T STEAL THIS OR I KILL U!!
but have fun its a kewl song my first tab so be gentle


------------------------------ 
------------------------------ 
------------------------------
------------------------------
------------------------------
-5-5-5-3-3-3-2-2-1-1-5-5-3-5-5 repeat
[ Tab from: http://www.guitartabs.cc/tabs/w/white_stripes/dead_leaves_and_the_dirty_ground_tab_ver_3.html ]
-----------------------------
-----------------------------
------------------------------
-7-7-7-5-5-5-4-4-2-2-7-7-5-7-7
-7-7-7-5-5-5-4-4-2-2-7-7-5-7-7
-5-5-5-3-3-3-2-2-1-1-5-5-3-5-5 repeat

-----------------0-
---3p2-----------2-
-----------0---0-2-
--2-------0---2--2-
-0-------2---3-----
--------3---------- repeat

then he sings then

-------------------------
-------------------------
-------------------------
-------------------------
-7-7-5-5-10-10--12--12--7
-5-5-3-3--8--8--10--10--5 repeat

and thats all i got so far dudes
Comments