White Stripes - Dead Leaves And The Dirty Ground Chords & Tabs

 

Dead Leaves And The Dirty Ground Chords & Tabs

White Stripes Chords & Tabs

Version: 2 Type: Tab 1 rating
1 star 2 stars 3 stars 4 stars 5 stars
comments

Dead Leaves And The Dirty Ground Tab

   
oooooooooo|-Jay Ronaldo-|
oooooooo|-Questions?-|
oooooooooooooo|-Jay_Ronaldo@yahoo.com-|
----------
Band: The White Stripes
Album: White Blood Cells
Song: Dead Leaves and the Dirty Ground
----------
r = Release
h = Hold
----------
Intro-Heavy Distortion
Listen for Rhythym to get it.
e|------------------------------------------------------------
A|------------------------------------------------------------
D|------------------------------------------------------------
G|------------------------------------------------------------
B|------------------------------------------------------------
E|-5-5-5-0--3-3-0--2-2-0-1-1-0-5------------------------------

Chords-Distortion
Play throughout whole song
e|------------------------------------------------------------
A|------------------------------------------------------------
D|-----------------------6-6-8-8------------------------------
G|-8-8r-8-8r--6-6r-6-6r--6-6-8-8-8h---------------------------
B|-8-8r-8-8r--6-6r-6-6r--4-4-6-6-8h---------------------------
E|-6-6r-6-6r--4-4r-4-4r----------6h---------------------------
[ Tab from: http://www.guitartabs.cc/tabs/w/white_stripes/dead_leaves_and_the_dirty_ground_tab_ver_2.html ]
Comments