White Stripes - Dead Leaves And The Dirty Ground Chords & Tabs

 

Dead Leaves And The Dirty Ground Chords & Tabs

White Stripes Chords & Tabs

Version: 5 Type: Bass Tab 0 ratings
1 star 2 stars 3 stars 4 stars 5 stars
comments

Dead Leaves And The Dirty Ground Bass Tab

|----------------------------|
|----------------------------|
|----------------------------|
|5-5-50-4-4-40-2-20-1-10-5-50|   x4

|---------------------------------|
|---------------------------------|
|------3--5--0-----0-----3--5--0--|
|5--3-----------3-----3-----------|

|---------------------------------------|
|---------------------------------------|
|--0-----3--5--0--0-----3--5--0--------0|
|3----3----------3---3-----------1--3---|  x2

|----------------------------------------------|
|----------------------------------------------|
|0--0-------3-3-5-5-0--0----0-0-------3-3-5-5-0|
|------3--3---------------3------3--3----------|

|-------------------------------------|
|-------------------------------------|
|---------------------3--5--0--------0|
|5--3--2-1-5--3-5--3-----------1--3---|
[ Tab from: http://www.guitartabs.cc/tabs/w/white_stripes/dead_leaves_and_the_dirty_ground_btab_ver_5.html ]
|-----------------------------------------|
|-----------------------------------------|
|--0-----3--5--0----0-----3--5--0--------0|
|3----3-----------3----3-----------1--3---|

|----------------------------------------------|
|----------------------------------------------|
|0--0-------3-3-5-5-0--0----0-0-------3-3-5-5-0|
|------3--3---------------3------3--3----------|

|----------------------------------------------------------------|
|----------------------------------------------------------------|
|5-5-5-5-5-5-5-5------------------5-5-5-5-5-5-5-5-3-3-3-3-5-5-5-5|
|----------------5-5-5-5-35-5-5-5--------------------------------|

|-------------------------------------|
|-------------------------------------|
|---------------------3--5--0--------0|
|5--3--2-1-5--3-5--3-----------1--3---|

|--------------------------------|
|--------------------------------|
|--0-----3--5--0----0-----3--5--0|
|3----3-----------3----3---------|
Comments