White Stripes - Dead Leaves And The Dirty Ground Chords & Tabs

 

Dead Leaves And The Dirty Ground Chords & Tabs

White Stripes Chords & Tabs

Version: 4 Type: Bass Tab 0 ratings
1 star 2 stars 3 stars 4 stars 5 stars
comments

Dead Leaves And The Dirty Ground Bass Tab

   
Dead Leaves and the Dirty Ground
by The White Stripes
tabbed by: "The Great One"
|----------------------------------------------------------|(4x)
|----------------------------------------------------------|
|----------------------------------------------------------|
|-4-----4---0--0---2-----2---0--0---1----0--0--0---0--0--4-|

|-----------------------|
|-----------------------|
|---------------3--5--0-|
|-0-4-----2-------------|

|-----------------------|
|-----------------------|
|---------------3--5--0-|
|-0-4-----2-------------|

|-----------------------|
|-----------------------|
|---------------3--5--0-|
|-0-4----0-2--0---------|

|-----------------------|
|-----------------------|
|---------------3--5--0-|
|-0-4------2--0---------|

|-----------|
|-----------|
|-----------|
|-0-0--2--4-|

|------------------------------|
|------------------------------|
|----------------------3--5--0-|
|-0---4--4----2--2--0----------|

|------------------------------|
|------------------------------|
|----------------------3--5--0-|
|-0---4--4----2--2--0----------|

|-----------|
|-----------|
|-----------|
|-0-0--2--4-|

|----------------------------|(2x)
|----------------------------|
|----------------3-3---4-4-0-|
|-4--4----2--2---------------|

|----------------------|
|----------------------|
|----------------------|
|-0--4---2---1---0---4-|

|---------------------|
|---------------------|
|-------------3--5--0-|
|-0--4---2------------|

|-----------|
|-----------|
|-----------|
|-0-0--2--4-|

|------------------------------|
|------------------------------|
|----------------------3--5--0-|
|-0---4--4----2--2-------------|
[ Tab from: http://www.guitartabs.cc/tabs/w/white_stripes/dead_leaves_and_the_dirty_ground_btab_ver_4.html ]
|------------------------------|
|------------------------------|
|----------------------3--5--0-|
|-0---4--4----2--2---0---------|

|-----------|
|-----------|
|-----------|
|-0-0--2--4-|

|----------------------------|(2x)
|----------------------------|
|----------------3-3---4-4-0-|
|-4--4----2--2---------------|

|-----------------------------------------------------|
|-----------------------------------------------------|
|----5--5--5--5--5--5--5--5---------------------------|
|-0--------------------------4--4--4--4h2--4--4--4--4-|

|------------------------------------------------------------|
|------------------------------------------------------------|
|-5--5--5--5--5--5--5--5-------------------------------------|
|-------------------------2--0--0--0--0--0--2--2--2--2--2--4-|

|---------------------|
|---------------------|
|---------------------|
|-2-----1-----0-----4-|

|-------------------------|
|-------------------------|
|-----------------3--5--0-|
|-0-4--4---2--2-----------|

|-----------|
|-----------|
|-----------|
|-0-0--2--4-|

|-------------------------|
|-------------------------|
|-----------------3--5--0-|
|-0-4--4---2--2-----------|

|-------------------------|
|-------------------------|
|-----------------3--5--0-|
|--4--4---2--2------------|

 I know this song doesn't have Bass in it, but I managed to throw in the Bass,
and it sounds cool. It should sound good, all u have 2 do is tune your bass so it
matches the song.

    Try it so the tuning heads 
    look like this:     
                     /  
                     /        
                     /
                     \            This one goes out to Joe, and Connie.
                                       Good Times bro, Good Times.
                                                 c/o 2003
Comments