White Stripes - Dead Leaves And The Dirty Ground Chords & Tabs

 

Dead Leaves And The Dirty Ground Chords & Tabs

White Stripes Chords & Tabs

Version: 2 Type: Bass Tab 1 rating
1 star 2 stars 3 stars 4 stars 5 stars
comments

Dead Leaves And The Dirty Ground Bass Tab

   
This is the "honest-to-god" real bass tabs for this song
I was using the guitar chords for reference, this is how it goes:
Guitar main riff goes:
A[x4] G[x4] C[x3] D[x3] A[x2] G[x1] A[start over]

intro & chorus [distort]:
G|----:--------------------------------------:|
D|----:----------------------0--0-0----------:|
A|--0-:-0--0-0---------3--3-3-------0--0---0-:|
G|----:-------3--3--3-3------------------3---:|

1st bridge just before the verse: silence
[ Tab from: http://www.guitartabs.cc/tabs/w/white_stripes/dead_leaves_and_the_dirty_ground_btab_ver_2.html ]
verses: [~ = let it ring]
G|----:------------------:|
D|----:-------0~---------:|
A|--0~:-----3~--0~---0~--:|
E|----:-3~----------3----:|

2nd bride [i didn't feel so bad...] goes:
G|---------------------------------------------|
D|--0[x8]-------------------------0[x8]--------|
A|---------0--0--0--0-0--0--0--0---------------|
E|-------------------3------------------3[x16]-|


thanks for checkin this out, i think this sounds way better 
than the others out there, and this is also my first tab submission
I LOVE THE WHITE STRIPES and i know you do too!!
ENJOY!!! ---xCHRISx---
Comments