White Stripes - China Girl Chords & Tabs

 

China Girl Chords & Tabs

White Stripes Chords & Tabs

Version: 1 Type: Tab 0 ratings
1 star 2 stars 3 stars 4 stars 5 stars
comments

China Girl Tab

				Artist: The White Stripes
Song: China Girl
Tabber: Jurre
Email: skateboard_rules_1@hotmail.com


Standard Tuning(EADGBe)

|---10-10-10-10-10-10---------4-4-4-4----------------------------------------------|
|---11-11-11-11-11-11---------3-3-3-3---------2-2------------6---------------------|
|---------------------3-6-5-3-----------------3-3-3-3--3-6-3-6-3--3---3-3----------|
|-8-------------------3-6-5-3---------3-6-6-3-----3-3--3-6-3---3--3-6-3-3----------|
|-------------------------------------1-4-4-1-----------------------4--------------|
|----------------------------------------------------------------------------------|

|-----------|
|-2-2-2-2---|
|-3-3-3-3-3-|
|---------3-|
|-----------|
|-----------|

                                   I don't wanna kill......

|---------------------------------------------------------------------------------|
|-3-6-6-3--------6---------------------------------------------6-6-3-3------------|
|-3-6-6-3--3---3-6-3--6-6/3-3-3------------3-6-3-3-------------6-6-3-3---3-6-3-3--|
|----------3-6-3---3--6-6/3-3-3--3-6-3-3---3-6-3-3---3-6-3-3-------------3-6-3-3--|
|------------4-------------------1-4-1-1-------------1-4-1-1----------------------|
|---------------------------------------------------------------------------------|

         ...My china girl/pig(or whatever he's singing)

|---------------------------------------------------------------------------------|
|---------------------------------------------------------------------------------|
|-3-6-3-3---3-6-3-3---6-6/3-3-3---3-6-3-3---3-6-3-3---6-6/3-3-3--3-6-3-3--3-6-3-3-|
|-3-6-3-3---3-6-3-3---6-6/3-3-3---3-6-3-3---3-6-3-3---6-6/3-3-3--3-6-3-3--3-6-3-3-|
|---------------------------------------------------------------------------------|
|---------------------------------------------------------------------------------|

                                 I don't wanna kill....
[ Tab from: http://www.guitartabs.cc/tabs/w/white_stripes/china_girl_tab.html ]
|----------------------4-4-4-------------4-4-4-4----------------------------------|
|----------------------3-3-3-------------3-3-3-3----------------3-----------------|
|-3-6-3-3--3-6-6-3---3---------3-6-6-3-------------3-6/3-3-3--3-3-3-3---3-6-3-6-3-|
|-3-6-3-3--3-6-6-3---3---------3-6-6-3-------------3-6/3-3-3--3---3-3---3-6-3-6-3-|
|---------------------------------------------------------------------------------|
|---------------------------------------------------------------------------------|

|-4-4-4-4----10-10-10-10-10--------------------4-4-4-4----------------------------|
|-3-3-3-3----11-11-11-11-11--------------------3-3-3-3-----------3-6-3-3----------|
|----------------------------3-6-3-3--3---3-3-----------3-6-3-3--3-6-3-3--3-6-3-3-|
|----------8-----------------3-6-3-3--3-6-3-3-----------3-6-3-3-----------3-6-3-3-|
|---------------------------------------4-----------------------------------------|
|---------------------------------------------------------------------------------|

|---------------------------------------------------------------4-----------------|
|-3-6-3-3-----------------------------------------------------3-3-3-3-------------|
|-3-6-3-3---3---3-3---3-6-3-3--3-6/3-3-3--3---3-3--3-6-6-6-3--3---3-3--3-6-6-6-3--|
|-----------3-6-3-3---3-6-3-3--3-6/3-3-3--3-6-3-3--3-6-6-6-3-----------3-6-6-6-3--|
|-------------4-----------------------------4-------------------------------------|
|---------------------------------------------------------------------------------|

        ...My china pig ( whatever ).

|-----------------------------------4-4-4-4-4-4-4-4-4-4-4-4-4-4-4-4-----------------|
|-3-6-6-3---------------------------3-3-3-3-3-3-3-3-3-3-3-3-3-3-3-3-----3~-2--------|
|-3-6-6-3---------------6-6/3-3-3-------------------------------------3-3~-1-3-3----|
|-----------3-6-3-3-3---6-6/3-3-3-------------------------------------3------3-3----|
|-----------1-4-1-1-1---------------------------------------------------------------|
|-----------------------------------------------------------------------------------|

|----------------------------------------------------------4-4-4--------------------|
|-----------3-3~-2-----------------------------------------3-3-3--------------------|
|-3-6-3-3---3-3~-1-3-3---3-3-3-3---6-6/3-3-3---3---3-3---3-------3------------------|
|-3-6-3-3----------3-3---3-3-3-3---6-6/3-3-3---3-6-3-3---3-------3------------------|
|------------------------------------------------4----------------------------------|
|-----------------------------------------------------------------------------------|

To make it easier, you could change the:

|---------|    |---------|
|---------|    |---------|
|-3---3-3-| to |-3-6-3-3-| Same goes for other ones like that.
|-3-6-3-3-|    |-3-6-3-3-|
|---4-----|    |---------|
|---------|    |---------|
Comments