White Stripes - Cannon Chords & Tabs

 

Cannon Chords & Tabs

White Stripes Chords & Tabs

Version: 6 Type: Tab

Cannon Tab

   
Well, here is the first song I've tabbed before. Like Ive tabbed songs before,
just this is the first I did ya know? Im not asking for sympathy, give me an
honest review so I know I suck or if I dont, whatever works for me. For help,
questions, hate mail, whatever contact me at www.myspace.com/kainrad

Tuning: Standard
Written by: Jack White
Album: The White Stripes
Peppermint Stripe Music

High Distortion.

Intro: 

e|---------------------------------------------------------------| x3
B|---------------------------------------------------------------|
G|---------------------------------------------------------------|
D|---------------------------------------------------------------|
A|---------------------------------------------------------------|
E|--0-7-6-5---3-3-3-3-5-3----------------------------------------|


e|---------------------------------------------------------------|
B|---------------------------------------------------------------| x5
G|---------------------------------------------------------------|
D|---------------------------------------------------------------|
A|---------------------------------------------------------------|
E|--0-7-6-5---3-3-3-3-5-3----------------------------------------|

 Outside...
 mydoor...
 unlocked...
 i'm lookin'...
 at this sound...

e|---------------------------------------------------------------|
B|---------------------------------------------------------------|
G|---------------------------------------------------------------|
D|---------------------------------------------------------------|
A|---5---5---5---5---5---5---------------------------------------|
E|-0-3-0-3-0-3-0-3-0-3-0-3---------------------------------------|

  That chime out of nowhere
   yeah, nowhere

e|---------------------------------------------------------------|
B|---------------------------------------------------------------| x10
G|---------------------------------------------------------------|
D|---9-8-7---5-5-5-5-7-5-----------------------------------------|
A|---9-8-7---5-5-5-5-7-5-----------------------------------------|
E|-0-7-6-5---3-3-3-3-5-3-----------------------------------------|

  whoo
  wheels turnin'
  scratchin'
  and burnin'
  yeah
  i fought guns
  tanks
  cannon
  cannon
  yeah

e|---------------------------------------------------------------|
B|---------------------------------------------------------------|
G|---------------------------------------------------------------|
D|---------------------------------------------------------------|
A|---5---5---5---5---5---5---------------------------------------|
E|-0-3-0-3-0-3-0-3-0-3-0-3---------------------------------------|


(Note- Downstrokes on all the E's and upstrokes on the A)
    E             
 tell me who's that writin'
    E             
 john the revelator
    E             A
 tell me who's that writin'
    E             
 john the revelator
    E             A
 tell me who's that writin'
    E             
 john the revelator

e|---------------------------------------------------------------|
B|---------------------------------------------------------------|
G|---------------------------------------------------------------|
D|---------------------------------------------------------------|
A|---------------------------------------------------------------|
E|--3-------2------------p0--------------------------------------|
[ Tab from: http://www.guitartabs.cc/tabs/w/white_stripes/cannon_tab_ver_6.html ]
 wrote the book on the seven seals
       E                 A
 christ went down on easter mornin'
       E                 A
 mary mother went down to see it
       E                 A
 gotta tell my disciples to 

e|---------------------------------------------------------------|
B|---------------------------------------------------------------|
G|---------------------------------------------------------------|
D|---------------------------------------------------------------|
A|---------------------------------------------------------------|
E|--3-------2------------p0--------------------------------------|

    meet     me in galilee
       E                 A
 who's writin'
       E
 john the revelator
       E               A
 tell me who's that writin'
       E            
 john the revelator
                      A
 tell me who's that writin'
       E
 john the revelator

e|---------------------------------------------------------------|
B|---------------------------------------------------------------|
G|---------------------------------------------------------------|
D|---------------------------------------------------------------|
A|---------------------------------------------------------------|
E|--3-------2------------p0--------------------------------------|

  wrote the book on the seven seals




e|---------------------------------------------------------------|
B|---------------------------------------------------------------| x8
G|---------------------------------------------------------------|
D|---9-8-7---5-5-5-5-7-5-----------------------------------------|
A|---9-8-7---5-5-5-5-7-5-----------------------------------------|
E|-0-7-6-5---3-3-3-3-5-3-----------------------------------------|

    hey
    whoo
    lord above
    i command
    i've been evil
    evil
   

(Just scratch here.)

e|---------------------------------------------------------------|
B|---------------------------------------------------------------|
G|---------------------------------------------------------------|
D|-9-9-9-9-9-9-9-9-----------------------------------------------|
A|-9-9-9-9-9-9-9-9-----------------------------------------------|
E|-7-7-7-7-7-7-7-7-----------------------------------------------|

     yeah

Solo

e|------12-12-10-10-9-9-8-8--------------------------------------| x2
B|---------------------------------------------------------------|
G|---------------------------------------------------------------|
D|---------------------------------------------------------------|
A|---------------------------------------------------------------|
E|---------------------------------------------------------------|

e|------12-12/10-10/9-9/8-8--------------------------------------|
B|---------------------------------------------------------------|
G|---------------------------------------------------------------|
D|---------------------------------------------------------------|
A|---------------------------------------------------------------|
E|---------------------------------------------------------------|


e|---------------------------------------------------------------|
B|---------------------------------------------------------------|
G|---------------------------------------------------------------|
D|---------------------------------------------------------------|
A|---5---5---5---5---5---5---------------------------------------|
E|-0-3-0-3-0-3-0-3-0-3-0-3---------------------------------------|
     
     Evil